#табулатура

    
I Never Changed

Riff 1:        |---------------------------------------
|---------------------------------------
|------------------4-4--4---------------
|--7-7--5--2-2--2--4-4--4--5-5--5-------
|--7-7--5--2-2--2--2-2--2--5-5--5-------
|--5-5--3--0-0--0----------3-3--3-------

Riff 2:        |---------------------------------------
|---------------------------------------
|--4-4--4--7-7--7--9-9--9---------------
|--4-4--4--7-7--7--9-9--9--5--7---------
|--2-2--2--5-5--5--7-7--7--5--7---------
|--------------------------3--5---------

Solo:        
|--7-12-7---7-12-7--------777-121212----
|---------8--------8--888-888-8-8-8-----
|---------------------------------------
|---------------------------------------
|---------------------------------------
|---------------------------------------

Intro:        
Riff 1 } 4 times

Riff 1
I always was there for you
You're never fucking there for me
That's the way it seems to be
And the way it's always been
Riff 2
I never changed
I never changed
I never changed
Never never never never never never changed
Riff 1
I was always there for you
Always first in the queue
I used to do anything
And everything just for you
Riff 2
I never changed
I never changed
I never changed
Never never never never never never changed
Riff 1 - slow, then Solo
Riff 1
I'm still fucking here for you
No matter what you say or do
Cos that's the way i've always been
And you know that's fucking true
Riff 2
I never changed
I never changed
I never changed
Never never never never never never changed

© Авторские права на тексты, песни, видео и другую представленную информацию принадлежат правообладателям. Аккорды, табы, gtp и тексты песен взяты из открытых источников.
Возрастная категория сайта: 18+
Тексты некоторых песен могут содержать нецензурные выражения, брань.
© 2021 guitar-chords.ru