"THE MASSACRE" (1990)
Porno slut

Рифф A:        E|--------------------------------------------------
B|--------------------------------------------------
G|--------------------------------------------------
D|-9---9-10-7----9---9-10-7----9---9-10-7---5-4-3---
A|-7---7-8--5----7---7-8--5----7---7-8--5---3-2-1-5-
E|------------------------------------------------3-

Рифф B:        E|-------------------------------------------------------
B|-------------------------------------------------------
G|-------------------------------------------------------
D|-9-9---9-9-9---9-9-9---9-10-7---9-9---9-9-9---5---12---
A|-7-7---7-7-7---7-7-7---7-8--5---7-7---7-7-7---3---10---
E|-------------------------------------------------------

Рифф C:        E|----------------------------------------------------------------------
B|----------------------------------------------------------------------
G|----------------------------------------------------------------------
D|-9-9-9-9-10-10-7-7-9-9-9-9-10-10-7-7-9-9-9-9-10-10-7-7---5--4--3------
A|-7-7-7-7-8--8--5-5-7-7-7-7-8--8--5-5-7-7-7-7-8--8--5-5---3--2--1--5---
E|------------------------------------------------------------------3---

Рифф D:        E|---
B|---
G|---
D|---
A|-2-
E|-0-

Риффы играются в таком порядке:
Рифф A } 2 раза
Рифф B } 2 раза
Рифф C } 2 раза
Рифф B } 6 раз
Рифф C } 2 раза
Рифф B } 8 раз
Рифф C } 2 раза
Рифф B } 11 раз
Рифф C } 2 раза
Рифф D } 1 раз
Подбирать соляки я не рискну


© Авторские права на тексты, песни, видео и другую представленную информацию принадлежат правообладателям. Аккорды, табы, gtp и тексты песен взяты из открытых источников.
Возрастная категория сайта: 18+
Тексты некоторых песен могут содержать нецензурные выражения, брань.
© 2021 guitar-chords.ru