"THE MASSACRE" (1990)
Sick bastard

Рифф A:        E|--------------------------------------------------------------------------------
B|--------------------------------------------------------------------------------
G|--------------------------------------------------------------------------------
D|-9--9-9-10\9-9-9-10\9-9-9-10\9-9-12-10--10-10-12\10-10-10-12\10-10-10-12\10-10--
A|-7--7-7--8\7-7-7--8\7-7-7--8\7-7-10-8---8.-8--10\8--8--8--10\8--8--8--10\8-8-8--
E|--------------------------------------------------------------------------------

E|--------------------------------------------------------------------------------
B|--------------------------------------------------------------------------------
G|--------------------------------------------------------------------------------
D|-9--9-9-10\9-9-9-10\9-9-9-10\9-9-12-10--10-10-12\10-10-10-12\10-10-10-14--------
A|-7--7-7--8\7-7-7--8\7-7-7--8\7-7-10-8---8.-8--10\8--8--8--10\8--8.-8-.12--------
E|--------------------------------------------------------------------------------

Рифф B:        E|--------------------------------------
B--------------------------------------
G|--------------------------------------
D|-9-------10--------7---10----9----7-7-
A|-7--------8--------5----8----7----5-5-
E|--------------------------------------

Рифф C:        E|--------------------------------------
B|--------------------------------------
G|--------------------------------------
D|-9-------10--------7---10----9--------
A|-7--------8--------5----8----7--------
E|--------------------------------------

Рифф D:        E|-------------------------
B|-------------------------
G|-------------------------
D|-9---10\7-7---7-7---9/10-
A|-7----8\5-5---5-5---7/8--
E|-------------------------
            m   m m

Рифф E:        E|-----------
B|-----------
G|-----------
D|-9----9----
A|-7----7----
E|-----------

Риффы играются в таком порядке:
Рифф A } 2 раза
Рифф B } 2 раза
Рифф C } 1 раз
Рифф B } 1 раз
Рифф D } 2 раза
Рифф A } 1 раз
Рифф B } 1 раз
Рифф C } 1 раз
Рифф B } 1 раз
Рифф D } 2 раза
Рифф B } 8 раз
Рифф D } 2 раза
Рифф A } 1 раз
Рифф B } 8 раз
Рифф D } 4 раза
Рифф E } 1 раз
Подбирать соляки я не рискну

Обозначение:
/ - скольжение вверх
\ - скольжение вниз
m - глушение ладонью левой руки


© Авторские права на тексты, песни, видео и другую представленную информацию принадлежат правообладателям. Аккорды, табы, gtp и тексты песен взяты из открытых источников.
Возрастная категория сайта: 18+
Тексты некоторых песен могут содержать нецензурные выражения, брань.
© 2021 guitar-chords.ru