#табулатура

    
Was It Me

E------------------|------------------|-----------------|-----------------|
B------------------|------------------|-----------------|-----------------|
G------------------|------------------|-----------------|-----------------|
D-11-11-11-11-11-11|-10-10-10-10-10-10|-3-3-3-3-3-3-3-3-|-----------------|
A-11-11-11-11-11-11|-10-10-10-10-10-10|-3-3-3-3-3-3-3-3-|-----------------|
E--9--9--9--9--9--9|--8--8--8--8--8--8|-1-1-1-1-1-1-1-3-|-----------------|

a припев в две гитары:
1 гитара:    E|-----------------|-----------------|-----------------|
B|-----------------|-----------------|-----------------|
G|-----------------|-----------------|-----------------|
D|-8-8-8-8-7-7-87-5|-5-5-------------|-----------------|
A|-8-8-8-8-7-7-87-5|-5-5-------------|-----------------|
E|-6-6-6-6-5-5-65-3|-3-3-------------|-----------------|

2 гитара:    E|-----------------|-----------------|-----------------|
B|-6-6-6-6-5-5-65-3|-3-3-------------|-----------------|
G|-----------------|-----------------|-----------------|
D|-----------------|-----------------|-----------------|
A|-----------------|-----------------|-----------------|
E|-----------------|-----------------|-----------------|

Я точно посекундно не расписывал, вы послушайте песенку, и я думаю вы все
поймете.

Теперь слова:
(1)        
I've known you now
For the last twenty years or more
We fought for fun
We know the fucking score
I would have done
Anything at all for you
You're my best friend
why can't you see

chorus:        
You never told me
What we fell out about
Was it me
Was it me

(2)        
I can't believe
all the things you wrote to me
i Can't take in
the things you said to me
I thought you would
have done anything for me
we were best friends
why can't you see

chorus:        
You never told me
What we fell out about
Was it me
Was it me

(3)        
I've known you now
For the last twenty years or more
We seen it all
We know the fucking score
I would have done Anything at all for you
You're my best friend
honestly

В третьем куплете играется рифф приглушенно.
Соло мне лень было писать.

© Авторские права на тексты, песни, видео и другую представленную информацию принадлежат правообладателям. Аккорды, табы, gtp и тексты песен взяты из открытых источников.
Возрастная категория сайта: 18+
Тексты некоторых песен могут содержать нецензурные выражения, брань.
© 2021 guitar-chords.ru