#табулатура

    
Вступление и припев (звездочками отмечена реприза, повтор):
                             Dm          Gm 
E||------------------0--||---1-----------------------|
H||---------------3-----||------3-----1--------------|
G||------------2--------||*--------2--------3-----2~-|
D||---------------------||*--0-----------------3-----|
A||---------------------||---------------1-----------|
E||---------------------||---------------------------|

   F           A7               Dm          Gm 
|-----------------------0---||--1-----------------------|
|--------------------3------||-----3-----1--------------|
|-----------2-----2--------*||--------2--------3-----2~-|
|--------3-----------------*||--0-----------------3-----|
|-----3--------0------------||--------------1-----------|
|--1------------------------||--------------------------|

   F           A7             Dm         Gm            F          A7 
|--------------------------|----------0----------0--|----------0-----------|
|--------------------------|-------3----------3-----|-------3-----2~-------|
|-----------2--2--0-----2--|----2----------0--------|----2-----------------|
|--------3-----------3-----|------------------------|----------------------|
|-----3--------------------|------------------------|----------------------|
|--1-----------------------|------------------------|----------------------|

     Dsus2 : xx0230
Она сама по себе, она со всеми и ни с кем,
 Gm6/B : x1x030
Она нужна всем, но не нужна никому.
     F+7/6 : 1xx230
В ее зеленых глазах легко можно прочесть,
     A7 : x0x020
Что она принадлежать никогда не сможет одному,
Она всегда молчит, быть может, просто нет слов,
Ну а, может быть, считает, что нет смысла отвечать,
Но, в отличие от всех, она хотя бы не врет,
И если ты так захочешь, то она сейчас опять уйдет.
Еще один день, еще одна ночь, еще один год
Ты так надеешься, что у нее это пройдет.
И кажется, что ждать осталось совсем немножко,
Хочется верить, но она всего лишь кошка... кошка...

 Dm      Gm F   A7            Dm    Gm F 
Что ей снится, когда слезы на ее ресницах,
Когда в эту ночь опять не спится
И так больно курить одну за одной.

Ты ей все простишь утром, когда услышишь в свою дерь звонок,
Она опять улыбнется и уснет у твоих ног.
И что-то внутри вдруг снова станет на место,
Так далеки друг от друг, но все же кажется, что вместе.
Сейчас она с тобой, после с кем-то еще,
Она тебя понять не может, ей просто всеравно,
Она всего лишь любит развлечения и вино,
И каждая ночь с ней каждый раз заодно.
Она вернется опять и снова будет молчать,
И ты ее не вини, если совсем не хочешь потерять,
Помолчи с ней немного, попробуй просто понять,
Она всего лишь кошка и хочет спать.

Припев

Комментарий автора подбора к песне:
Перебор в куплете по схеме: бас-3-2-1-2-3-1-2
Можно боем играть аккорды: Dm Gm F A7 

© Авторские права на тексты, песни, видео и другую представленную информацию принадлежат правообладателям. Аккорды, табы, gtp и тексты песен взяты из открытых источников.
Возрастная категория сайта: 18+
Тексты некоторых песен могут содержать нецензурные выражения, брань.
© 2021 guitar-chords.ru