A Flowery Song

(bass)

Intro/Verses
E-----------7--5-------7-----
A-7----7-6--6--4-4-6----6----
D--6-6------------------4----
G----------------------------

Chorus/transition from intro to 1st verse
E-0-0-0--------2-2-----4-2---
A--------4-4-4-----0-0-------
D----------------------------
G----------------------------

Transistion from verses to chorus
E-5-5-5-6-7-7------9--9-7----
A----------------9-7--7------
D----------------------------
G----------------------------

The bridge where there are little chirping birdies
E----------------5-----7------
A-7------4-------7--7--9--9---
D--9--9---6--6----7-----9-----
G----9------6-----------------

and ends with A-5-7

Другие песни этого исполнителя/группы


© Авторские права на тексты, песни, видео и другую представленную информацию принадлежат правообладателям. Аккорды, табы, gtp и тексты песен взяты из открытых источников.
Возрастная категория сайта: 18+
Тексты некоторых песен могут содержать нецензурные выражения, брань.
© 2021 guitar-chords.ru