Combat Chuck

(bass)

The intro is just two Gs played on the E string (3rd fret)

Chorus:        
E-3-3--------------3-3----------4--
A-----0-1-1-0-1-1-----0-1-1-0-------
D-----------------------------------
G-----------------------------------

The verses are the same as the chorus

Bridge:        
E-3----------3------------------
A--2-3--3-2--2-3----------3-----
D------0----------2-3--3-2--2---
G----------------------0--------

Its not very hard.

Другие песни этого исполнителя/группы


© Авторские права на тексты, песни, видео и другую представленную информацию принадлежат правообладателям. Аккорды, табы, gtp и тексты песен взяты из открытых источников.
Возрастная категория сайта: 18+
Тексты некоторых песен могут содержать нецензурные выражения, брань.
© 2021 guitar-chords.ru