This song is played in Drop-D tuning, where you tune your low E string
down to a D (the same as Alone+Easy Taget.)

Intro/Verse:    e:---------1------------|------------------------|
B:--------------3--0--3-|----------6-------0-----|
G:----------------------|--------------7-------7-|
D:-0----0---------------|-5----5-----------------|
A:-0----0---------------|-5----5-----------------|
E:-0----0---------------|-5----5-----------------|
           I'm  not    around that much.     I'm
e:----------0------------|-----------0------------|
B:---------------1-----1-|------------------------|
G:------------------2----|----------------5-----5-|
D:-3----3----------------|-7----7------------7----|
A:-3----3----------------|-7----7-----------------|
E:-3----3----------------|-7----7-----------------|
  near                   exhausted
e:----------0------------|-----------0------------|
B:---------------1-----1-|------------------------|
G:------------------2----|----------------5-----5-|
D:-----------------------|-7----7------------7----|
A:-3----3----------------|-7----7-----------------|
E:-3----3----------------|------------------------|
                      and lost.

Pre-Chorus:    e:-------------------------------------|-----------------------|
B:-------------------------------------|-----------------------|
G:-------------------------------------|-----------------------|
D:-8-8-8-8--8-8-8-8---7-7-7-7--7-7-7-7-|-5-----5---5---5---5---|
A:-8-8-8-8--8-8-8-8---7-7-7-7--7-7-7-7-|-5-----5---5---5---5---|
E:-8-8-8-8--8-8-8-8---7-7-7-7--7-7-7-7-|-5-----5---5---5---5---|
                      ... and alone ...

Riff 2 (Chorus?)
e:------------------------------------------------------------|
B:------------------------------------------------------------|
G:------------------------------------------------------------|
D:------------------------------------------------------------|
A:-0---3---5---7---3---0---3---0---3---0----------------------|
E:-0---3---5---7---3---0---3---0---3---0----4---5---7^--7-|
A few tips:  Use your index finger on the second chord, middle finger
             on the third chord, middle finger on the fourth chord, and
             middle finger on the next two chords. These are the
             fingerings that I think work best with the TAB.

Lyrics (not official):
I'm not around that much.
I'm near exhausted and lost.
If it could be undone,
Will it have cost it?
It's torn and alone
Knowing the way we strain
And tear, exhausted, and fall.
What if today I'd stayed in bed,
And was bored?  Oh, we've gone
And fall.
After bliss is gone in bed,
Use caution.  It's gone.
Even the breeze that's flowing.
There is caustic.  And I talked.
And I missed it.

© Авторские права на тексты, песни, видео и другую представленную информацию принадлежат правообладателям. Аккорды, табы, gtp и тексты песен взяты из открытых источников.
Возрастная категория сайта: 18+
Тексты некоторых песен могут содержать нецензурные выражения, брань.
© 2021 guitar-chords.ru