from the album The Colour And the Shape
My Hero

Riff 1
intro:
e-------------------------------------------------------------------------------
b-------------------------------------------------------------------------------
g-9-p-8---9p8----8--9p8--9p8----------------------------------------------------
d------------999-------------999------------------------------------------------
a-------------------------------------------------------------------------------
e-------------------------------------------------------------------------------
----------------------------------------------------------------------------
Riff 2 (Main Riff)
e-------------------------------------------------------------------------------
b-------------------------------------------------------------------------------
g-9--8--8--8--9--8--8--8--9--8--8--8--11--9--9--9-------------------------------
d-------------------------------------------------------------------------------
a-------------------------------------------------------------------------------
e-------------------------------------------------------------------------------

Riff 3 (Rythym Riff)
e-------------------------------------------------------------------------------
b-------------------------------------------------------------------------------
g-9---------6---------------------------------------------4/--7-----------------
d-9--(x7)---6--(x7)--Repeat a few times----close out with-4/--7-----------------
a-7---------4---------------------------------------------2/--5-----------------
e-------------------------------------------------------------------------------

Riff 4
e-------------------------------------------------------------------------------
b-------------------------------------------------------------------------------
g-x--x--x--8-8-8-8-9-9-9-9-11-11-11---------------------------------------------
d-------------------------------------------------------------------------------
a-------------------------------------------------------------------------------
e-------------------------------------------------------------------------------


© Авторские права на тексты, песни, видео и другую представленную информацию принадлежат правообладателям. Аккорды, табы, gtp и тексты песен взяты из открытых источников.
Возрастная категория сайта: 18+
Тексты некоторых песен могут содержать нецензурные выражения, брань.
© 2021 guitar-chords.ru