#табулатура

    
Next Year

Вот:
|-------------------------------|
|--8-8-8-7-7-7--5-3-5-3-5-3-5-3-|
|--7-7-7-7-7-7--5-5-5-5-5-5-5-5-| } 3x
|--5-5-5-5-5-5--5-5-5-5-5-5-5-5-|
|-------------------------------|
|-------------------------------|

|-------------------------------|
|--8-8-8-7-7-7--8---------------|
|--7-7-7-7-7-7--7---------------|
|--5-5-5-5-5-5--5---------------|
|-------------------------------|
|-------------------------------|

© Авторские права на тексты, песни, видео и другую представленную информацию принадлежат правообладателям. Аккорды, табы, gtp и тексты песен взяты из открытых источников.
Возрастная категория сайта: 18+
Тексты некоторых песен могут содержать нецензурные выражения, брань.
© 2021 guitar-chords.ru