#табулатура

    
Requiem

Intro (first guitar)
E ----
B ----
G ----
D --7-
A --7-
E --5-

Intro (second guitar)
E -------------------------------------------------
B -------------------------------------------------
G ------8--6--4--2-------------------------------
D ----------------------4--2--0--------5------5--
A -------------------------------------------------
E --5------------------------------3-3----3-3----

Other Part (played by first guitar)
E ------------------------------------------------
B -----------------------------------------------
G ------------------------------------------------------
D ---7--7--7---7---7---7-7------4--4--4--5--5--5---------------
A ---7--7--7---7---7--7--7------4--4--4--5--5--5-------------------
E ---5--5--5---5---5--5--5------2--2--2--3--3--3--------------------
                                      *                  *              *
* second guitar play just the chords marked by a *

Lyrics:        
man watching video
there heart keeps on ticking
he doesn't know why
he's just caring  for slither
the, Requiem
the, Requiem
the, Requiem
any need for words
when you cease to function
when there's nothing to say
when will it start worrying you
the, Requiem
the, Requiem
the, Requiem
their hints of religion
i'm sensing spirits of depravity
the sound of breaking glass
this is the reflection
the, Requiem
the, Requiem
the, Requiem

© Авторские права на тексты, песни, видео и другую представленную информацию принадлежат правообладателям. Аккорды, табы, gtp и тексты песен взяты из открытых источников.
Возрастная категория сайта: 18+
Тексты некоторых песен могут содержать нецензурные выражения, брань.
© 2021 guitar-chords.ru