This is one of my favorite foo fighter songs. It can be found on the "big
me" single and the "this is a call" single.
It starts out:
E.-------------------------------------
B.--------------------------------------
G.-4-x-4-4-x-4-x-4-4-x-4-x-4-4-----------------
D.-3-x-3-3-x-3-x-3-3-x-3-x-3-3----------------
A.-4-x-4-4-x-4-x-4-4-x-4-x-4-4--4-2-4-2-4-2-4-2-
E.-------------------------------------

Then comes:
E.-3-3-3-3-3-3-1-1-1
B.-3-3-3-3-3-3-1-1-1
G.-4-4-4-4-4-4-2-2-2
D.-5-5-5-5-5-5-3-3-3
A.-5-5-5-5-5-5-3-3-3
E.-3-3-3-3-3-3-1-1-1

Then comes this:
E------------------------------------------------------
B------------------------------------------------------
G------4-----4-------4-------4------4-------4--1-1-1-1
D---------------2-2------------------------------2-2-2-2
A-4-4---2-2------------2-2----3-3-------------2-2-2-2
E----------------------------------------4-4-----0-0-0-0

LYRICS:
ABLE BODIES, CHEW THE WORD
CROP TO PLENTY, SABATORE
SPLIT THE MOMENT, SEAL THE SHEETS
TAKE THE HEMLOCK, BEG TO SEE
FEED THE LAWN FROM THE PALMS OF THEIR HANDS
NEVER HOLDING, TO UPHOLD
WINNEBAGO, WE ARE ONE
HOLD IN WONDER, SMOKING VEAL
SHE DIVORCES, PARTY ZEAL
DADDY LOVES LITTLE SON NO DEMAND
REPEAT FIRST VERSE
CRAWL ALONG LOOKIN' UP TILL YOU STAND

Well that is all. If the last chord does not come out right
when you print it, all it is a E  chord.

© Авторские права на тексты, песни, видео и другую представленную информацию принадлежат правообладателям. Аккорды, табы, gtp и тексты песен взяты из открытых источников.
Возрастная категория сайта: 18+
Тексты некоторых песен могут содержать нецензурные выражения, брань.
© 2022 guitar-chords.ru