#табулатура

    
X-Static

This song is one of the less complex songs on the album, with only two
main parts, but the 2 guitars can get a little tricky. One clean-
sounding guitar starts the intro with it's part, then the 2nd guitar
starts playing over it, giving it a harmonizing effect (which for some
reason seems to remind me of Soundgarden.)
It's all pretty simple.

Intro/Verse:
(Guitar 1)
e:-------------------------------|
B:-------------------------------|
G:-8---8---8---8-8---------8---8-|
D:-8---8---8---8-8---------8---8-|
A:-6---6---6---6-6---5/6---6---6-|
E:-------------------------------|

Verse:
(Guitar 2)
e:---------------------------------------------------------------|
B:---------------------------------------------------------------|
G:---------------------------------------------------------------|
D:-8---8---8---8---8---8----7----6---6---6---6---6---6---6----8--|
A:-8---8---8---8---8---8----7----6---6---6---6---6---6---6----8--|
E:-6---6---6---6---6---6----5----4---4---4---4---4---4---4----6--|

e:---------------------------------------------------------------|
B:---------------------------------------------------------------|
G:---------------------------------------------------------------|
D:-4---4---4---4---4---4----5----6---6---6---6---6---6---6----5--|
A:-4---4---4---4---4---4----5----6---6---6---6---6---6---6----5--|
E:-2---2---2---2---2---2----3----4---4---4---4---4---4---4----3--|

e:----------------------------------------------------------------------|
B:----------------------------------------------------------------------|
G:----------------------------------------------------------------------|
D:-4---4---4---4---4---4---4----6----3---3---3---3---3---3---3---3---3--|
A:-4---4---4---4---4---4---4----6----3---3---3---3---3---3---3---3---3--|
E:-2---2---2---2---2---2---2----4----1---1---1---1---1---1---1---1---1--|

e:------------------------------------|
B:------------------------------------|
G:------------------------------------|
D:-5---5---5---5---5---5---5---5---5--|
A:-5---5---5---5---5---5---5---5---5--|
E:-3---3---3---3---3---3---3---3---3--|

Chorus:
e:---------------------------------------------------------|
B:---------------------------------------------------------|
G:-5---5---5---5---3---3---3-------------------------------|
D:-5---5---5---5---3---3---3---3---3---3---3---3---3---3---|
A:-3---3---3---3---1---1---1---3---3---3---3---3---3---3---|
E:-----------------------------1---1---1---1---1---1---1---|

e:--------------------------------|--------------------|
B:--------------------------------|--------------------|
G:-6---6---6---6---5---5---5---4--|--------------------|
D:-6---6---6---6---5---5---5---4--|--------------------|
A:-4---4---4---4---3---3---3---2--|-2---/4---/6---/8---|
E:--------------------------------|--------------------|

Enjoy!

© Авторские права на тексты, песни, видео и другую представленную информацию принадлежат правообладателям. Аккорды, табы, gtp и тексты песен взяты из открытых источников.
Возрастная категория сайта: 18+
Тексты некоторых песен могут содержать нецензурные выражения, брань.
© 2021 guitar-chords.ru