#табулатура

    "Records"
Double Vision
(L. Gramm/M. Jones)

Tuning..... Standard  E B G D A E

NOTES: This is NOT a complete tab but any means. I don't have the rhythm
guitar for the chorus, nor do I have some other parts. Sorry about the
incompleteness of this tab.

Intro
E-------------------------|------------------------|
B-------------------------|-----------------------*|
G-------------------------|------------------------|
D-12\--5----5-5-5-7-5---|-12\--5----5-5-5-7----|
A-12\--3----0-3-0-5-3---|-12\--3----0-3-0-5---*|
E-------------------------|------------------------|

Verse
  P.M............   P.M............
E-----------------|-----------------|----------------------|
B-----------------|-----------------|----------------------|
G-----------------|-----------------|----------------------|
D-2-2-2-0-2-2-2-0-|-2-2-2-0-2-2-2-0-|--2----7----5---------|
A-0-0-0-0-0-0-0-0-|-0-0-0-0-0-0-0-0-|--0----5----3----5----|
E-----------------|-----------------|-----------------3----|
(The next line is the same except it's different, I didn't
bother figuring it out. I guess I'm lazy.)
Feeling down and dirty, feeling kinda mean
I've been to one to another, extreme
It's time I had a good time, ain't got time to wait
I wanna stick around till I can't see straight

Chorus (lead only)
  Dm 
E-13----------13----------|-13----------13----------|
B----15----15----15----15-|----15----15----15----15-|
G-------14----------14----|-------14----------14----|
D-------------------------|-------------------------|
A-------------------------|-------------------------|
E-------------------------|-------------------------|
  Am 
E-12----------12----------|-12----------12-----------|
B----13----13----13----13-|----13----13----13----13-*|
G-------14----------14----|-------14----------14-----|
D-------------------------|--------------------------|
A-------------------------|-------------------------*|
E-------------------------|--------------------------|
Fill my eyes, you got double vision
No disguise, for that double vision
Ohh, when it gets through to me, it's always new to me
My double vision gets the best of me
That's all I guess.
Whoop de doo.

© Авторские права на тексты, песни, видео и другую представленную информацию принадлежат правообладателям. Аккорды, табы, gtp и тексты песен взяты из открытых источников.
Возрастная категория сайта: 18+
Тексты некоторых песен могут содержать нецензурные выражения, брань.
© 2021 guitar-chords.ru