Long, long Way From Home

Tuning..... Standard  E B G D A E
Intro (2x's)
E-----------------|-----------------|-----------------|-------------------|
B-3-3-3-3-3-3-3-3-|-3-3-3-3-3-3-3-3-|-3-3-3-3-3-3-3-3-|-3-3-3--3-3-3-3-3-*|
G-2-2-2-2-2-2-2-2-|-2-2-2-2-2-2-2-2-|-0-0-0-0-0-0-0-0-|-0-0-0--0-2-2-0-2--|
D-0-0-0-0-0-0-0-0-|-0-0-0-0-0-0-0-0-|-x-x-x-x-x-x-x-x-|-x-x-x--0-0-0-0-0--|
A-----------------|---------------0-|-3-3-3-3-3-3-3-3-|-3-3-3------------*|
E-----------------|-----------------|-----------------|-------------------|
Verse (NOTE: Pay attention to the RHYTHM!!!)
E-----------------|-----------------|---------------------|-----------------|
B-----------------|-----------------|---------------------|-----------------|
G----7-7-----7----|----7-7-----7----|-5-5---5-5---5-5---7-|-7----7-----7----|
D----7-7-----7----|----7-7-----7----|-5-5---5-5---5-5---7-|-7----7-----7----|
A-10------10---10-|-10------10---10-|-----8-----8-----8---|---10----10---10-|
E-----------------|-----------------|---------------------|-----------------|

E-----------------|---------------------|---------------|
B-----------------|---------------------|--------------*|
G-7----7-----7----|-5-5---5-5---5-5---7-|--5--3--2--0---|
D-7----7-----7----|-5-5---5-5---5-5---7-|--5--3--2--0---|
A---10----10---10-|-----8-----8-----8---|--------------*|
E-----------------|---------------------|---------------|
It was a Monday, a day just like any other day
I left the small town for the apple in decay
It was my destiny, it's what we needed to do
They were telling me, I'm telling you
I was inside, looking outside
Oh, the millions of faces, but still I'm alone
Waiting, I was up waiting
Paying a penance, I was longing for home
Chorus
F5            C5          G5 
  I'm looking out for the two of us
A5/Bb5                F5        F#5/G5                 *fill 1* 
      I hope we'll be here when they're through with us
Fill 1
E-----0h1---|
B---2-------|
G-2---------|
D-----------|
A-----------|
E-----------|
Play Intro
Verse Two
I was inside, looking outside
Oh, the millions of faces, but still I'm alone
Waiting, I was up waiting
I could feel the tension, I was longing for home
Play Chorus
(Sax Solo)
Play Intro
Monday, sad sad Monday
They're waiting for me, but I'm a long, long way from home
Sad sad Monday
Oh, they're waiting for me, but I'm a long, long way from home
Sad sad Monday
Oh, they're waiting for me, but I'm a long, long way from home.
Whoop de doo.

© Авторские права на тексты, песни, видео и другую представленную информацию принадлежат правообладателям. Аккорды, табы, gtp и тексты песен взяты из открытых источников.
Возрастная категория сайта: 18+
Тексты некоторых песен могут содержать нецензурные выражения, брань.
© 2021 guitar-chords.ru