#табулатура

    "Red Medicine"
Combination lock

p=pull-off
h=hammer(awww yEah)-on

e|------11-11-11-11h12p11--|------11-11-11-11h12p11--|
B|-12-12-------------------|-12-12-------------------|
G|-------------------------|-------------------------|
D|-------------------------| you get the idea
A|-------------------------|-------------------------|
E|-------------------------|-------------------------|

e|-------------------------|
B|-------------------------|
G|--9^7-9^7----------------|
D|---------9-9*9-9-9^7-----|
A|---------------------9---|
E|-------------------------|

*=only fret theses note as you play them..don't let it ring out.
you end up almost tapping the string as you pick it.
There are of course other things to the song but just more obscure notes.
The first riff has a little variation every forth measure. Just listen and
play along.

© Авторские права на тексты, песни, видео и другую представленную информацию принадлежат правообладателям. Аккорды, табы, gtp и тексты песен взяты из открытых источников.
Возрастная категория сайта: 18+
Тексты некоторых песен могут содержать нецензурные выражения, брань.
© 2021 guitar-chords.ru