Last Chance For A Slow Dance

/ = Oh you know...
^  = Pull off

B|----------------------|----------------|
G|--5/7-7---------------|--5/7-7---------|
D|--5/7---7777-7^5------|--5/7--7--------|--(that 7)
A|--3/5-----------7-----|--3/5---5-------|--or play two 5's and no 7
E|----------------------|---------7-5----|   on the D string. whatever...
couple power chords while Ian sings:
"shot shooting...shot shot..."
B|--------------|  real tuff ;)
G|---7----------|
D|---7---7----5-|
A|---5---7----5-|
E|-------5----3-|
That's the song...pretty simple but neat-O!
Today's transcription was brought to you by the letter "Q"


© Авторские права на тексты, песни, видео и другую представленную информацию принадлежат правообладателям. Аккорды, табы, gtp и тексты песен взяты из открытых источников.
Возрастная категория сайта: 18+
Тексты некоторых песен могут содержать нецензурные выражения, брань.
© 2021 guitar-chords.ru