/ = Oh you know...
^  = Pull off

e|----------------|-------------------|
B|--2/3-3---------|-----3-------------|
G|--2/3-----------|--2/3--------------|
D|--------0-2^0---|-------0-22-2^0-0--|
A|-------------0--|-------------------|
E|----------------|-------------------|
couple power chords while he sings:
"shot shooting...shot shot..."
B|--------------|  real tuff ;)
G|---7----------|
D|---7---7----5-|
A|---5---7----5-|
E|-------5----3-|
That's the song...pretty cool, simple but neat-O!
Today's transcription was brought to you by the letter "Q"

© Авторские права на тексты, песни, видео и другую представленную информацию принадлежат правообладателям. Аккорды, табы, gtp и тексты песен взяты из открытых источников.
Возрастная категория сайта: 18+
Тексты некоторых песен могут содержать нецензурные выражения, брань.
© 2021 guitar-chords.ru