#табулатура

    
Long division

/&\= i think you know...

B|------------|-----------|-----------|--------------|
G|------------|-----------|-----------|--------------|
D|------------|-----------|-----------|--------------| } x2
A|-5-4-5--7---|-5-4-5--7--|-5-4-5--7--|------------7-|
E|---------7--|---------7-|---------7-|-7\5---5\7--0-|
then...
B|--------------|-------------|---------------|
G|--------------|-------------|---------------|
D|--------------|-------------|---------------|
A|-5-4/7\4-5----|-5-4/7\4-5---|-5-4/7\4-5-----|
E|-----------7--|----------7--|-----------7-7-|  cont'd...

B|---------------------|
G|---------------------|
D|---------------------|
A|-------7\5-4-7-------|
E|--7\5----------7-7---|
blah blah blah...  after that it's just variations...

© Авторские права на тексты, песни, видео и другую представленную информацию принадлежат правообладателям. Аккорды, табы, gtp и тексты песен взяты из открытых источников.
Возрастная категория сайта: 18+
Тексты некоторых песен могут содержать нецензурные выражения, брань.
© 2021 guitar-chords.ru