#табулатура

    
Suggestion

Over the past couple years I have seen several ASCII tabs for
Fugazi songs. Not until recently did I actually dig out the old
record and realize how far off most were. So, I played along
with the songs a couple times to find something that sounds better:
Think of this as an improvement to the already available tab.
I don't claim that it's perfect - I am not a big Fugazi fan and
this is typed from memory.

Most of the song is based on the following pattern.
It is sometimes played on the D and G strings (e.g. at first),
and sometimes on the A and D strings.
beat: 1       &       2       &       3       &       4       &
                      .       .
     -----------------7-------5-------7\------------------------------
     -0---0-0-0---0-----------------------------------3---3---5---5---
     pm............                                   pm...........
Example of a variation, played on A and D strings:
     -----------------7-----------7-----------7---7---5---6---7-------
     -0---0-0-0---0-------0---0-------0---0-----------------------0---
You will find this sort of thing happening from time to time:
     ---------------------------
     ---------------------------      .
     -7---------------7-------5-      7
     -7---------------7-------5-      7 (or whammy bar or sliding stuff,
     -5---------------5-------3-      5  what happens here varies)
     ---------------------------
And the more aggressive part is:
(ASCII space taken per beat is now half of previous)
     -----------------------------------------------------------------
     -------------------------------------.---.-----------------------
     -7---7-7-7---------------------------9---8---7-------------------
     -7---7-7-7---7-------7---7---7-----------------------------------
     -5---5-5-5---7-------7---7---7-----------------------------------
     -------------5-------5---5---5\--0-------------------------------
have a nice day -:)

© Авторские права на тексты, песни, видео и другую представленную информацию принадлежат правообладателям. Аккорды, табы, gtp и тексты песен взяты из открытых источников.
Возрастная категория сайта: 18+
Тексты некоторых песен могут содержать нецензурные выражения, брань.
© 2021 guitar-chords.ru