ELECTRIC GUITAR SOLO
Note that the main part repeats. Also, the notes in the parentheses are
only played the second time through.
Play LEGATO, as in, very smoothly and with no discernible connection
between notes - a hallmark of the Steve Hackett guitar style.
----------------------------------------------7)--12--12--12--12-
-12--12--12--12--10--10--10--8--7--8--(8--10---------------------
-----------------------------------------------------------------
-----------------------------------------------------------------
-----------------------------------------------------------------
-----------------------------------------------------------------

-10--10--10--8--7--8--(8--10--12)--15--14--12------13--12----------
-----------------------------------------------15----------15--13--
-------------------------------------------------------------------
-------------------------------------------------------------------
-------------------------------------------------------------------
-------------------------------------------------------------------

---------------------------------||---------------------------------
-13--11--10--11--10--12s13s12---o||---------------------------------
---------------------------------||---------------------------------
---------------------------------||---------------------------------
--------------------------------o||---------------------------------
---------------------------------||---------------------------------

-17b15--14--15-----------------------------------------------------
----------------12b10--8--10-----8--7------------------------------
------------------------------9--------7---------------------------
-------------------------------------------------------------------
-------------------------------------------------------------------
-------------------------------------------------------------------
Then there's the ending, when Gabriel plays flute, and the guitar part
becomes very minor.

© Авторские права на тексты, песни, видео и другую представленную информацию принадлежат правообладателям. Аккорды, табы, gtp и тексты песен взяты из открытых источников.
Возрастная категория сайта: 18+
Тексты некоторых песен могут содержать нецензурные выражения, брань.
© 2021 guitar-chords.ru