Cinema Show

INTRO:
1st guitar:
--17--17--17------15--15--15----------------------------------
----20--20--20--18--18--18--18--18--18--18--18----17--17--17--
----------------------------------21--21--21----19--19--19--19
--------------------------------------------------------------
--------------------------------------------------------------
--------------------------------------------------------------
2nd guitar:
----6--6--6--------6--6--6--------3---3---3--------3--3--3----
--------------------------------------------------------------
----7--7--7--------7--7--7--------3---3---3--------3--3--3----
--0-------------0---------------0---------------0-------------
--------------------------------------------------------------
--------------------------------------------------------------
1st:
--------------------------------------------------------
-17--17--17--17----15--15--15----13--13--13--13---------
---19--19--19----17--17--17--17----16--16--16-----------
--------------------------------------------------------
--------------------------------------------------------
--------------------------------------------------------
2nd:
----1--1--1----------1--1--1----------------------------
--------------------------------------------------------
----2--2--2----------2--2--2--------7--7--7-------------
--0----------------0--------------0---------------------
--------------------------------------------------------
--------------------------------------------------------
1st:
--------------------------------------------------------------
--12--12--12------12--12--12------10--10--10------10--10--10--
14--14--14--14--12--12--12--12--12--12--12--12--10--10--10--10
--------------------------------------------------------------
--------------------------------------------------------------
--------------------------------------------------------------
                                                    slower
2nd:
--------------------------------------------------------------
--------------------------------------------------------------
---7--7---7--------7--7---7--------5--5--5----------5--5--5---
0----------------0--------------0-----------------0-----------
--------------------------------------------------------------
--------------------------------------------------------------
1st:
----------------------------------------------------|---
---8--8--8------8-8-8------8--8--8------8-8-8-------|---
-10-10-10-10---9-9-9-9---10-10-10-10---9-9-9-9------|---
----------------------------------------------------|---
----------------------------------------------------|---
----------------------------------------------------|---
a tempo        slow      slower       even slower
2nd:
----------------------------------------------------|---
----------------------------------------------------|---
----3-3-3-------3-3-3------3-3-3---------3-3-3------|---
--5------------5----------5------------5------------|---
----------------------------------------------------|---
----------------------------------------------------|---

VERSE:
one guitar (I think...)
-----10------10-----10---10--10-------10-----10-----10---10--10
---14------14-----14---14--14-------14-----14-----14---14--14--
-11------11-----11----------------12-----12-----12-------------
0-------0------0-----------------0------0------0---------------
---------------------------------------------------------------
---------------------------------------------------------------
(4X; 2X without vocals, 2X with vocals....)
Home from work, our Juliet..............
Then, 2 guitars again:
1st:  Dm                    Bb 
--5---5-5------5---5-5------6----6-6-------6-------6-6---------
---6-----6------6-----6------6------6-------6---------6--------
----7-----7__----7-----7__----7(?)---7(?)__--7(?)__----7(?)__--
---------------------------------------------------------------
---------------------------------------------------------------
---------------------------------------------------------------
I will make my bed,         she said, and turned to go
2nd:
--0-1-0-1-0-1---0-1-0-1-0-1---0-1-0-1-0-1-----0-1-0-1-0-1---
------------------------------------------------------------
------------------------------------------------------------
------------------------------------------------------------
------------------------------------------------------------
------------------------------------------------------------

ONE GUITAR:             ___________________ __________________
 Bb         C           |1. Dm               | 2.  Gmaj7   Am 
----6--6----8--8--8--8-----10__--8-10-8-5--|-------------------
----6--6----8--8--8--8-----10__------------|----To next section
--7---------9--9--9--9-----10__-----------!|-------------------
------------------------------------------!|-------------------
-------------------------------------------|-------------------
-------------------------------------------|-------------------
1. Can she be late for her cinema show?
2. Can he fail armed with his               chocolate surprise?


© Авторские права на тексты, песни, видео и другую представленную информацию принадлежат правообладателям. Аккорды, табы, gtp и тексты песен взяты из открытых источников.
Возрастная категория сайта: 18+
Тексты некоторых песен могут содержать нецензурные выражения, брань.
© 2022 guitar-chords.ru