#табулатура

    Hang-Ups (1997)
Disorder

Intro:        
E Esus4 

Intro Riff:    E--0---------------------------------------0-2-4-5-7--
B----0------------------------------------------------
G------1s2-1--------------------------1-4-------------
D------------2r---------------2-1-2-2-----------------
A---------------------2-2s4s2-------------------------
E-----------------0-4---------------------------------

Verse:        
E------------------------
B------------------------
G---9---------6----------
D---9----7----6----9-----
A---7----7----4----9-----
E--------5---------7-----
    Eii  A    C#   B 

Verse Riff:    E-----------------------------------
B-----------------------------------
G--9-9--9-9--9-9--9-9--9-9--9-9-----
D--------------------------------7b-
A-----------------------------------
E-----------------------------------

Chorus:
Bass plays E  F#  G#  A   2x, then
Guitar plays E  F#  G#  A   2x.

Chorus Riff: (repeated)
E--0----------------
B----4-2-0-----0-2--
G----------1s2------
D-------------------
A-------------------
E-------------------
(*When chorus is repeated, the first bass-only part of the chorus is
played with palm-muted guitar)

Solo:        
E----------------------------------------------------0---
B------------------------------------------0-0r--------0-
G--------------------------------------1-2---------------
D--------------2-1-2-------------------------------------
A--------4-2-4-------2-2-2-------4-2-4-------------------
E--0-4-0-------------------0-4-0-----------------4s5-----
(con't.)
E-------------------------4s5-5-5-5-4s5-5-4---7-5-4-------
B-------------4-0-4s5-5-4-------------------5-------5-4---
G-1s2-2s1-----------------------------------------------4-
D---------2-----------------------------------------------
A-----------4---------------------------------------------
E---------------------------------------------------------
(con't.)
E------
B------
G------
D------
A------
E--0r--

Outro riff:    E-0-----------------
B---0---------------
G-----1s2-2s1-------
D-------------2-----
A-------------------
E----------------0--

Lyrics:        
(Verse) My little story's growing way too long. I've had to suffer enough
to write this song. And if I get the chance, I'll tell you how it feels.
Cause in this sick old head, the pain is way too real, so I fall down.
(Chorus) I don't know if I can make it up this time. I know I want to but
it gets harder every time. And if it's easier, to give up everything, I'd
give it all to you to relieve half this pain cause it's been hard. Yeah
it's been hard.
(Verse) I sit there at the bar, I wonder what I've done. Should I just
fuck it all, or should I go back home. Cause if I take that drink, I
might as well just die. And if I kill myself, I'll be giving up my try so
I fall down. . . . .

That's the song! I hope you like what you see.

© Авторские права на тексты, песни, видео и другую представленную информацию принадлежат правообладателям. Аккорды, табы, gtp и тексты песен взяты из открытых источников.
Возрастная категория сайта: 18+
Тексты некоторых песен могут содержать нецензурные выражения, брань.
© 2022 guitar-chords.ru