Re-Hash

intro
играется с дребезжанием
1|--x-x-x-x-x-x-x-x-x-x-x-x-x-x-x--x-x-x--
2|--x-x-x-x-x-x-x-x-x-x-x-x-x-x-x--x-x-x--
3|--x-x-x-x-x-x-x-x-x-x-x-x-x-x-x--x-x-x--
4|--5-5-5-5-5-3-3-3-3-3-3-5-5-5-3--3-4-5--
5|--5-5-5-5-5-3-3-3-3-3-3-5-5-5-3--3-4-5--
6|--3-3-3-3-3-1-1-1-1-1-1-3-3-3-1--1-2-3-- } x4

4|--5-5-5-5-5-3-3-3-3-3-3-5-5-5-3-----3-4-5-
5|--5-5-5-5-5-3-3-3-3-3-3-5-5-5-3-----3-4-5- riff 1
6|--3-3-3-3-3-1-1-1-1-1-1-3-3-3-1-----1-2-3-

It's a sweet sensation over the dub

4|--5-5-5-5-5-8-8-8-8-8--10-10-10-----8---8-
5|--5-5-5-5-5-8-8-8-8-8--10-10-10-----8---8- riff 2
6|--3-3-3-3-3-6-6-6-6-6--8--8--8------6---6-

I want a situation but  don't want to stop
riff 1
It's the drugs for sober over the dub
riff 2
With the sweetest inspiration don't want to stop

chorus:
riff 1
It's the money as dub } x8
It's the eye of the storm

куплет как первый

chorus

Bah bah bah bah bah bah

3|------3--6--3--8--3-3--6--3--8--8--6---x } раз 10
chorus


© Авторские права на тексты, песни, видео и другую представленную информацию принадлежат правообладателям. Аккорды, табы, gtp и тексты песен взяты из открытых источников.
Возрастная категория сайта: 18+
Тексты некоторых песен могут содержать нецензурные выражения, брань.
© 2021 guitar-chords.ru