(I don't have time to type out the rythym, so that is up to you)
Chord  Progression:
E--X-------X-------X-------X-------X-------X-------X--
B--X-------X-------X-------X-------X-------X-------X--
G--8-------X-------5-------X-------X-------8-------X--
D--8-------8-------5-------5-------6-------8-------8--
A--6-------8-------3-------5-------6-------6-------8--
E--X-------6-------X-------3-------4-------X-------6--
  Do you..Time to..Listen..Whine..About...Everyth..once
..I.am....Those....Melodra.Fools..Neurot...Bone....It
E--X-------X-------X--
B--X-------X-------X--
G--X-------X-------8--
D--6-------8-------8--
A--6-------8-------6--
E--4-------6-------X--
...Sometim.Give....Creeps
...Sometim.Mind....Me
E--X-------X-------X-------X-------X--
B--X-------X-------X-------X-------X--
G--X-------X-------8-------6-------5--
D--6-------8-------8-------6-------5--
A--6-------8-------6-------4-------3--
E--4-------6-------X-------X-------X--
...It all..Up......Think I.Crackin.Up
E--X-------X--
B--X-------X--
G--X-------X--
D--6-------8--
A--6-------8--
E--4-------6--
...Am.I..ranoid...
E--X-------X-------X--
B--X-------X-------X--
G--8-------X-------X--
D--8-------8-------10-
A--6-------8-------10-
E--X-------6-------8--
...Stoned!

© Авторские права на тексты, песни, видео и другую представленную информацию принадлежат правообладателям. Аккорды, табы, gtp и тексты песен взяты из открытых источников.
Возрастная категория сайта: 18+
Тексты некоторых песен могут содержать нецензурные выражения, брань.
© 2022 guitar-chords.ru