This song is basically power chords, like most of Green Day's songs
the chording goes (powerchords)
G F# E C 
C G 
here's the tab
p.m. all the way through the power chords
  G             F#     E          C 
--------------------|-------------------------|
--------------------|-------------------------|
--------------------|-------------------------|
--------------------|-------------4-4-4-4-4-4-|
-4-4-4-4-4--4-4-3-3-|--2-2-2-2-2--2-2-2-2-2-2-|
-2-2-2-2-2--2-2-1-1-|--0-0-0-0-0--------------|

 D    Dsus2 
-1----0-------0------|
-2------3-------3----|
-3--------2-------2--|
-0----------0--------|
---------------------|
---------------------|
When he starts singing "Take me to the place..." you play a C  powerchord
then a G  powerchord

© Авторские права на тексты, песни, видео и другую представленную информацию принадлежат правообладателям. Аккорды, табы, gtp и тексты песен взяты из открытых источников.
Возрастная категория сайта: 18+
Тексты некоторых песен могут содержать нецензурные выражения, брань.
© 2022 guitar-chords.ru