INTRO RIFF:       G5    C           G5 
E|-----------------|-----------------|
B|-----------------|-----------------|
G|-------5---5---5-|-----------------|
D|-5-5-5-5---5---5-|-5---------------|
A|-5-5-5-3---3---3-|-5---------------|
E|-3-3-3-----------|-3---------------|

PRE-CHORUS RIFF:
E|-----------------|-----------------|-----------------|-----------------|
B|-----------------|-----------------|-----------------|-----------------|
G|-----------------|-----------------|-----------------|-----------------|
D|-2-2-2-2-2-2-2-2-|-2-2-2-2-2-2-2-2-|-5-5-5-5-5-5-5-5-|-5-5-5-5-5-5-5-5-|
A|-2-2-2-2-2-2-2-2-|-2-2-2-2-2-2-2-2-|-5-5-5-5-5-5-5-5-|-5-5-5-5-5-5-5-5-|
E|-0-0-0-0-0-0-0-0-|-0-0-0-0-0-0-0-0-|-3-3-3-3-3-3-3-3-|-3-3-3-3-3-3-3-3-|

CHORUS RIFF:    E|-----------------|-----------------|-----------------|-----------------|
B|-----------------|-----------------|-----------------|-----------------|
G|-2-2-2-2-2-2-2-2-|-----------------|-2-2-2-2-2-2-2-2-|-----------------|
D|-2-2-2-2-2-2-2-2-|-3-3-3-3-3-3-3-3-|-2-2-2-2-2-2-2-2-|-3-3-3-3-3-3-3-3-|
A|-0-0-0-0-0-0-0-0-|-3-3-3-3-3-3-3-3-|-0-0-0-0-0-0-0-0-|-3-3-3-3-3-3-3-3-|
E|-----------------|-1-1-1-1-1-1-1-1-|-----------------|-1-1-1-1-1-1-1-1-|

E|-----------------|-----------------|-----------------|-----------------|
B|-----------------|-----------------|-----------------|-----------------|
G|-5-5-5-5-5-5-5-5-|-----------------|-----------------|-----------------|
D|-5-5-5-5-5-5-5-5-|-5-5-5-5-5-5-5-5-|-3-3-3-3-3-3-3-3-|-3-3-3-3-3-3-3-3-|
A|-3-3-3-3-3-3-3-3-|-5-5-5-5-5-5-5-5-|-3-3-3-3-3-3-3-3-|-3-3-3-3-3-3-3-3-|
E|-----------------|-3-3-3-3-3-3-3-3-|-1-1-1-1-1-1-1-1-|-1-1-1-1-1-1-1-1-|

INTRO w/ INTRO RIFF
VERSE 1 w/ INTRO RIFF
Clenching my teeth tight
My head is like a sponge
Give it to me free
PRE CHORUS w/ PRE CHORUS RIFF
I wanna get ripped off
And drown in the airwaves
Another fatal wreck
On the Information highway
CHORUS w/ CHORUS RIFF
So go ahead and kill yourselves
It all amuses me
For I'll be damned to spend
My life in hell
Another wise ingrete
VERSE 2 w/ INTRO RIFF
Bring me blood and pain
of a stranger's fate
Give it all away
Gimme gimme now
I'm desensitized
I wanna watch the bomb
Blow the masses high
PRE-CHORUS
CHORUS
VERSE 3 w/ INTRO RIFF
Bring me blood and pain
of a stranger's fate
Give it all away
PRE-CHORUS
CHORUS
OUTRO w/ INTRO RIFF

© Авторские права на тексты, песни, видео и другую представленную информацию принадлежат правообладателям. Аккорды, табы, gtp и тексты песен взяты из открытых источников.
Возрастная категория сайта: 18+
Тексты некоторых песен могут содержать нецензурные выражения, брань.
© 2021 guitar-chords.ru