This is the song off green day's insomniac album that is on MTV and was
played on saturday night live. It's called geek stink breath
this is the verse, keep playing this all the way thru
G-|-------------------------------------------------------------------------
D-|-------------------------------------------------------------------------
A-|---32--23----------------------------------------------------------------
E-|-33--11------------------------------------------------------------------
this is the first half of the chorus
G-|-------------------------------------------------------------------------
D-|-------------------------------------------------------------------------
A-|-------------------------------------------------------------------------
E-|-66-0-111----------------------------------------------------------------
Keep playing for the first half then move to this for the second half of the
chorus:
G-|-------------------------------------------------------------------------
D-|-------------------------------------------------------------------------
A-|-------------------------------------------------------------------------
E-|-33-0-111----------------------------------------------------------------
then back to the verse. any turnarounds or scales or anything special like
that that is used may not be in here, this is just the raw tab.


© Авторские права на тексты, песни, видео и другую представленную информацию принадлежат правообладателям. Аккорды, табы, gtp и тексты песен взяты из открытых источников.
Возрастная категория сайта: 18+
Тексты некоторых песен могут содержать нецензурные выражения, брань.
© 2021 guitar-chords.ru