"Nimrod"
Haushinka

TAB Notation:
Throughout this guide, you may find various symbols coinsiding with the
numbers of the TAB. This is a small legend letting you know what they mean.
If you are unfamiliar with how to accomplish the effects with the given
notation, I suggest you look on the web, there's plenty of info somewhere
out there on how to make all of these work to your full benefit.
h  = hammer-on
p  = pull-off
b  = bend
r  = bend release
/  = slide up/down
= natural harmonic
{5} = artifical harmonic
~  = vibrato
tr = trill

*This song is very cool, also features 2 guitar parts.. for the bass part,
as is almost always the case, just play the root note of each power chord*

Intro Riff:       D                               C   D                               C 
E|-----------------|-----------------|-----------------|-----------------|
B|-----------------|-----------------|-----------------|-----------------|G
G|*----------------|-----------------|-----------------|----------------*|T
D|*----------------|-----------------|-----------------|----------------*|R
A|-----------------|-----------------|-----------------|-----------------|1
E|-----------------|-----------------|-----------------|-----------------|
 |                                                                       |
E|-----------------|-----------------|-----------------|-----------------|
B|-----------------|-----------------|-----------------|-----------------|G
G|*7---------------|---------------5-|-7---------------|---------------5*|T
D|*7---------------|---------------5-|-5---------------|---------------5*|R
A|-5---------------|---------------3-|-5---------------|---------------3-|2
E|-----------------|-----------------|-----------------|-----------------|

Verse Riff:    E|-2---------------|-3---------------|-5---------------|-3---------------|
B|-------3---------|-------3---------|-------3---------|-------3---------|L
G|-----------------|-----------------|-----------------|-----------------|E
D|-----------------|-----------------|-----------------|-----------------|A
A|-----------------|-----------------|-----------------|-----------------|D
E|-----------------|-----------------|-----------------|-----------------|
  |  D                               C   D                               C  |  
E|-----------------|-----------------|-----------------|-----------------|R
B|-----------------|-----------------|-----------------|-----------------|H
G|-7---------------|---------------5-|-7---------------|---------------5-|Y
D|-7---------------|---------------5-|-5---------------|---------------5-|T
A|-5---------------|---------------3-|-5---------------|---------------3-|H
E|-----------------|-----------------|-----------------|-----------------|M

Chorus Riff:       D                 C                 G5                F5        G5 
E|-----------------|-----------------|-----------------|-----------------|R
B|-----------------|-----------------|-----------------|-----------------|H
G|*7---7-7---7-7-7-|-5---5-5---5-5-5-|-----------------|----------------*|Y
D|*7---7-7---7-7-7-|-5---5-5---5-5-5-|-5---5-5---5-5-5-|-3-3-3-3---5-5--*|T
A|-5---5-5---5-5-5-|-3---3-3---3-3-3-|-5---5-5---5-5-5-|-3-3-3-3---5-5---|H
E|-----------------|-----------------|-3---3-3---3-3-3-|-1-1-1-1---3-3---|M
   F5        G5      F5        G5      A5 
E|-----------------|-----------------|-----------------|-----------------|R
B|-----------------|-----------------|-----------------|-----------------|H
G|-----------------|-----------------|-----------------|-----------------|Y
D|-3-3-3-3---5-5---|-3-3-3-3---5-5---|-7-7-7-7-7-7-7-7-|-7-7-7-7-7-7-7-7-|T
A|-3-3-3-3---5-5---|-3-3-3-3---5-5---|-7-7-7-7-7-7-7-7-|-7-7-7-7-7-7-7-7-|H
E|-1-1-1-1---3-3---|-1-1-1-1---3-3---|-5-5-5-5-5-5-5-5-|-5-5-5-5-5-5-5-5-|M

Bridge Riff:       B5            A5                   F#5 G5            F#5 G5 
E|-----------------|-----------------|-----------------|-----------------|R
B|-----------------|-----------------|-----------------|-----------------|H
G|-----------------|-----------------|-----------------|-----------------|Y
D|-9-9-9-9-9-9-9-7-|---7-7-7-7-7-7-7-|-4/5-5-5-5-5-5-5-|-4/5-5-5-5-5-5-5-|T
A|-9-9-9-9-9-9-9-7-|---7-7-7-7-7-7-7-|-4/5-5-5-5-5-5-5-|-4/5-5-5-5-5-5-5-|H
E|-7-7-7-7-7-7-7-5-|---5-5-5-5-5-5-5-|-2/3-3-3-3-3-3-3-|-2/3-3-3-3-3-3-3-|M

Interlude:    
E|-----------------|-----------------|-----------------|-----------------|R
B|-----------------|-----------------|-----------------|-----------------|H
G|---------7---X---|-----------------|---------7---X---|-----------------|Y
D|-7---7-X-7---X-5-|---5---X-7---X-X-|-7---7-X-7---X-5-|---5---X-7---X-X-|T
A|-7---7-X-5---X-5-|---5---X-7---X-X-|-7---7-X-5---X-5-|---5---X-7---X-X-|H
E|-5---5-X-------3-|---3---X-5---X-X-|-5---5-X-------3-|---3---X-5---X-X-|M

Solo:        
E|-----------------|-----------------|-----------------|-----------------|
B|-----------------|-----------------|-----------------|-----------------|L
G|-5-5-7-7-8-8-7-7-|-5-5-7-7-8-8-7-7-|-4-4-5-5-7-7-5-5-|-4-4-5-5-7-7-5-5-|E
D|-5-5-5-5-5-5-5-5-|-5-5-5-5-5-5-5-5-|-4-4-4-4-4-4-4-4-|-4-4-4-4-4-4-4-4-|A
A|-----------------|-----------------|-----------------|-----------------|D
E|-----------------|-----------------|-----------------|-----------------|

E|-----------------|-----------------|-----------------|-----------------|
B|-----------------|-----------------|-----------------|-----------------|L
G|-5-5-7-7-8-8-7-7-|-5-5-7-7-8-8-7-7-|-8-8-8-8-8-8-8-8-|-8-8-8-8-8-8-8-8-|E
D|-5-5-5-5-5-5-5-5-|-5-5-5-5-5-5-5-5-|-5-5-5-5-5-5-5-5-|-5-5-5-5-5-5-5-5-|A
A|-----------------|-----------------|-----------------|-----------------|D
E|-----------------|-----------------|-----------------|-----------------|

Intro
Verse 1 w/ Verse Riff
Haushinka is a girl with a peculiar name.
I met her on the eve of my birthday.
Did she know.
Did she know, before she went away.
Does she know?
But it's too damn late.
Chorus w/ Chorus Riff
This girl has gone far away.
Now she's gone.
Verse 2 w/ Verse Riff
All I have now is a memory to date.
A cheap hat and cigarettes, and a peculiar name.
I didn't know.
I didn't know, before she went away.
I know now.
I know now, and it's too damn late.
Chorus
Bridge w/ Bridge Riff
Will she ever find her way?
I'm too damn young to be late, but am I?
Yet again, I'm kicking myself, and I'll be here in battle scars,
waiting for you.
Waiting for you now.
Interlude
Solo
Chorus

© Авторские права на тексты, песни, видео и другую представленную информацию принадлежат правообладателям. Аккорды, табы, gtp и тексты песен взяты из открытых источников.
Возрастная категория сайта: 18+
Тексты некоторых песен могут содержать нецензурные выражения, брань.
© 2021 guitar-chords.ru