TAB Notation:
Throughout this guide, you may find various symbols coinsiding with the
numbers of the TAB. This is a small legend letting you know what they mean.
If you are unfamiliar with how to accomplish the effects with the given
notation, I suggest you look on the web, there's plenty of info somewhere
out there on how to make all of these work to your full benefit.
h  = hammer-on
p  = pull-off
b  = bend
r  = bend release
/  = slide up/down
= natural harmonic
{5} = artifical harmonic
~  = vibrato
tr = trill

*Note.. this is basically just a listing of the different riffs in this
song, very cool song. He switches the main guitar riff around a bit for each
phrase, so I tabbed both variations*
G|-----------------|-----------------|-----------------|-----------------|B
D|-----------------|-----------------|-----------------|-----------------|A
A|-2-----------2---|-0-----------0---|-2-----------2---|-0-----------0---|S
E|-------2---------|-------0---------|-------2---------|-------0---------|S
 |                                                                       |
E|-----------------|-----------------|-----------------|-----------------|G
B|-----------------|-----------------|-----------------|-----------------|U
G|-----------------|-----------------|-----------------|-----------------|I
D|-----------------|-----------------|-----------------|-----------------|T
A|-----------------|-----------------|-----------------|-----------------|A
E|-----------------|-----------------|-----------------|-----------------|R

G|-----------------|-----------------|-----------------|-----------------|B
D|-----------------|-----------------|-----------------|-----------------|A
A|-2-----------2---|-0-----------0---|-2-----------2---|-0-----------0---|S
E|-------2---------|-------0---------|-------2---------|-------0---------|S
 |                                                                       |
E|-2---------------|-----------------|-----------------|-----------------|G
B|-2---------------|-----------------|-----------------|-----------------|U
G|-2---------------|-----------------|-----------------|-----------------|I
D|-----------------|-----------------|-----------------|-----------------|T
A|-----------------|-----------------|-----------------|-----------------|A
E|-----------------|-----------------|-----------------|-----------------|R

G|-----------------|-----------------|-----------------|-----------------|B
D|-----------------|-----------------|-----------------|-----------------|A
A|-2-----------2---|-0-----------0---|-2-----------2---|-0-----------0---|S
E|-------2---------|-------0---------|-------2---------|-------0---------|S
 |                                                                       |
E|-----------------|-----------------|-----------------|-----------------|G
B|-----------------|-----------------|-----------------|-----------------|U
G|-----------------|-----------------|-----------------|-----------------|I
D|-----------------|-----------------|-----------------|-----------------|T
A|-2-----------2---|-0-----2-4---4-0-|-2~~---------|-----------------|A
E|-------2---------|-----------------|-----------------|-----------------|R

G|-----------------|-----------------|-----------------|-----------------|B
D|-----------------|-----------------|-----------------|-----------------|A
A|-2-----------2---|-0-----------0---|-2-----------2---|-0-----------0---|S
E|-------2---------|-------0---------|-------2---------|-------0---------|S
 |                                                                       |
E|-----------------|-----------------|-----------------|-----------------|G
B|-----------------|-----------------|-----------------|-----------------|U
G|-----------------|-----------------|-----------------|-----------------|I
D|-----------------|-----------------|-----------------|-----------------|T
A|-2-----------2---|-0-----2-4---0-4-|-2~----------|-----------------|A
E|-------2---------|-----------------|-----------------|-----------------|R

G|-----------------|-----------------|-----------------|-----------------|B
D|-----------------|-----------------|-----------------|-----------------|A
A|-------0---------|-----------------|-------0---------|-----------------|S
E|-0---------0-2-0-|-2\--------------|-0---------0-2-0-|-2\--------------|S
 |                                                                       |
E|-------0---------|-----------------|-------0---------|-----------------|G
B|-----------0-----|-----------------|-----------0-----|-----------------|U
G|-----------------|-----------------|-----------------|-----------------|I
D|-2---------------|-4\--------------|-2---------------|-4\--------------|T
A|-2---------------|-4\--------------|-2---------------|-4\--------------|A
E|-0---------------|-2\--------------|-0---------------|-2\--------------|R

G|-----------------|-----------------|-----------------|-----------------|B
D|-----------------|-----------------|-----------------|-----------------|A
A|-----------------|-----------------|-----------------|-----------------|S
E|-0---0-0---0---0-|-0---0-0---0---0-|-2---2-2---2---2-|-2---2-2---2---2\|S
 |                                                                       |
E|-----------------|-----------------|-----------------|-----------------|G
B|-----------------|-----------------|-----------------|-----------------|U
G|-----------------|-----------------|-----------------|-----------------|I
D|-2---------------|---------------2-|-4---------------|----------------\|T
A|-2---------------|---------------2-|-4---------------|----------------\|A
E|-0---------------|---------------0-|-2---------------|----------------\|R

© Авторские права на тексты, песни, видео и другую представленную информацию принадлежат правообладателям. Аккорды, табы, gtp и тексты песен взяты из открытых источников.
Возрастная категория сайта: 18+
Тексты некоторых песен могут содержать нецензурные выражения, брань.
© 2021 guitar-chords.ru