TAB Notation:
Throughout this guide, you may find various symbols coinsiding with the
numbers of the TAB. This is a small legend letting you know what they mean.
If you are unfamiliar with how to accomplish the effects with the given
notation, I suggest you look on the web, there's plenty of info somewhere
out there on how to make all of these work to your full benefit.
h  = hammer-on
p  = pull-off
b  = bend
r  = bend release
/  = slide up/down
= natural harmonic
{5} = artifical harmonic
~  = vibrato
tr = trill

INTRO:        
E|-----------------|-----------------|-----------------|-----------------|
B|-------0---------|-------0---------|-------0---------|-----------------|
G|-----------0-----|-----------0-----|-----------0-----|-----------------|
D|-7---------------|-6---------------|-5---------------|-4-4-4-4-4-4-4-4-|
A|-7---------------|-6---------------|-5---------------|-4-4-4-4-4-4-4-4-|
E|-5---------------|-4---------------|-3---------------|-2-2-2-2-2-2-2-2-|

E|-----------------|-----------------|-----------------|-----------------|
B|-----------------|-----------------|-----------------|-----------------|
G|-4-4-4-4-4-4-4-4-|-7-7-7-7-7-7-7-7-|-----------------|---------7---7---|
D|-4-4-4-4-4-4-4-4-|-7-7-7-7-7-7-7-7-|-7-7-7-7-7-7-7-7-|-7-7-7-7-7---7---|
A|-2-2-2-2-2-2-2-2-|-5-5-5-5-5-5-5-5-|-7-7-7-7-7-7-7-7-|-7-7-7-7-5---5---|
E|-----------------|-----------------|-5-5-5-5-5-5-5-5-|-5-5-5-5---------|

VERSE:        
E|-----------------|-----------------|-----------------|-----------------|
B|-----------------|-----------------|-----------------|-----------------|
G|-----------------|-7-7-7-7-7-7-7-7-|-------------7---|-----------------|
D|-7-7-7-7-7-7-7-7-|-7-7-7-7-7-7-7-7-|-7-7-7-7-7-7-7---|-7-7-7-7-7-7-7-7-|
A|-7-7-7-7-7-7-7-7-|-5-5-5-5-5-5-5-5-|-7-7-7-7-7-7-5---|-7-7-7-7-7-7-7-7-|
E|-5-5-5-5-5-5-5-5-|-----------------|-5-5-5-5-5-5-----|-5-5-5-5-5-5-5-5-|

E|-----------------|-----------------|-----------------|-----------------|
B|-----------------|-----------------|-----------------|-----------------|
G|-----------------|-7-7-7-7-7-7-7-7-|-----------------|-----------------|
D|-7-7-7-7-7-7-7-7-|-7-7-7-7-7-7-7-7-|-2-2-2-2-2-2-2-2-|-2-2-2-2-5---5---|
A|-7-7-7-7-7-7-7-7-|-5-5-5-5-5-5-5-5-|-2-2-2-2-2-2-2-2-|-2-2-2-2-5---5---|
E|-5-5-5-5-5-5-5-5-|-----------------|-0-0-0-0-0-0-0-0-|-0-0-0-0-3---3---|

E|-----------------|-----------------|-----------------|-----------------|
B|-----------------|-----------------|-----------------|-----------------|
G|-----------------|-7-7-7-7-7-7-7-7-|-------------7---|-----------------|
D|-7-7-7-7-7-7-7-7-|-7-7-7-7-7-7-7-7-|-7-7-7-7-7-7-7---|-7-7-7-7-7-7-7-7-|
A|-7-7-7-7-7-7-7-7-|-5-5-5-5-5-5-5-5-|-7-7-7-7-7-7-5---|-7-7-7-7-7-7-7-7-|
E|-5-5-5-5-5-5-5-5-|-----------------|-5-5-5-5-5-5-----|-5-5-5-5-5-5-5-5-|

E|-----------------|-----------------|-----------------|-----------------|
B|-----------------|-----------------|-----------------|-----------------|
G|-----------------|-7-7-7-7-7-7-7-7-|-----------------|-----------------|
D|-7-7-7-7-7-7-7-7-|-7-7-7-7-7-7-7-7-|-2-2-2-2-2-2-2-2-|-2-2-2-2-2-2-2-2-|
A|-7-7-7-7-7-7-7-7-|-5-5-5-5-5-5-5-5-|-2-2-2-2-2-2-2-2-|-2-2-2-2-2-2-2-2-|
E|-5-5-5-5-5-5-5-5-|-----------------|-0-0-0-0-0-0-0-0-|-0-0-0-0-0-0-0-0-|

Intro w/ INTRO
Verse 1 w/ VERSE
We're living in repetition.
Content in the same old shtick again.
Now the routine's turning to contention,
like a production line going over and over and over, roller coaster.
Chorus w/ INTRO
Now I cannot speak, I've lost my voice.
I'm speechless and reduntant.
'Cause I love you's not enough.
I'm lost for words
Verse 2 w/ VERSE
Choreographed and lack of passion.
Prototypes of what we were.
Went full circle 'til I'm nauseous.
Taken for granted now I waste it, faked it, ate it, now I hate it.
Chorus
Interlude w/ VERSE
Chorus
Chorus

© Авторские права на тексты, песни, видео и другую представленную информацию принадлежат правообладателям. Аккорды, табы, gtp и тексты песен взяты из открытых источников.
Возрастная категория сайта: 18+
Тексты некоторых песен могут содержать нецензурные выражения, брань.
© 2021 guitar-chords.ru