There are many ways to play this song this is just one way and the
one of the easiest ways I think.
x=palm mute
/=slide up                   Use Distortion
\=slide down
------------------------------------------------------------------------------
------------------------------------------------------------------------------
------------------------------------------------------------------------------
-----------------7---7---7---9---9---4---5-----5---5--------------------------
-----5---5---5---5---5---5---7---7---2---3-----3---3--------------------------
-----3---3---3----------------------------------------------------------------
                 Play this above 11 times
------------------------------------------------------------------------------
------------------------------------------------------------------------------
-----5----5----2---2---2---2---2---2---2---2----5---5---5---5---5---5---5---5-
-----5----5----2---2---2---2---2---2---2---2----5---5---5---5---5---5---5---5-
-----3----3----0---0---0---0---0---0---0---0----3---3---3---3---3---3---3---3-
------------------------------------------------------------------------------
------------------------------------------------------------------------------
------------------------------------------------------------------------------
-----2---2---2---2-----2---2---2---2----5---5---5---5---5---------------------
-----2---2---2---2-----2---2---2---2----5---5---5---5---5---------------------
-----0---0---0---0-----0---0---0---0----3---3---3---3---3---------------------
------------------------------------------------------------------------------
-----3-----------5------------3---3-------5----3---3----3---3-----------------
--------3-----3-----3-----3---3---3-------3----3---3----3---3-----------------
-----------0-----------0------0---0---0---0----0---0----0---0-----------------
------------------------------------------------------------------------------
------------------------------------------------------------------------------
------------------------------------------------------------------------------
-----3----3---3---5----5---5---5----3---3---3----3---3------------------------
-----3----3---3---3----3---3---3----3---3---3----3---3------------------------
-----0----0---0---0----0---0---0----0---0---0----0---0------------------------
------------------------------------------------------------------------------
------------------------------------------------------------------------------
-----------------------------------
-----------5---5------5---/15------
---/4------4---4-----45------------
-----------------------------------
-----------------------------------
-------------------------------12\-

Then you play the beginning of the song 4 more times


© Авторские права на тексты, песни, видео и другую представленную информацию принадлежат правообладателям. Аккорды, табы, gtp и тексты песен взяты из открытых источников.
Возрастная категория сайта: 18+
Тексты некоторых песен могут содержать нецензурные выражения, брань.
© 2021 guitar-chords.ru