Crossing The Deadline

Repeats are not always included.
Please listen to the song for further information.

Verse:        
G----------------------
D----------------------
A--8-8-----------------
E------9-8-6--6--------

PreChorus:    
G-----------------------
D-----------------------
A--8-8------------------
E------9-8-6--6---4---6-

Chorus:        
G-----------------------------
D-----------------------------
A-----------------------------
E--6--0-0-6--6--4--0--4--0-----

After Chorus:    G----------------------------------
D----------------------------------
A----------------------------------
E--6-4-6-4-6-4-6-4-6-4-6-4-6-4-6-4-

© Авторские права на тексты, песни, видео и другую представленную информацию принадлежат правообладателям. Аккорды, табы, gtp и тексты песен взяты из открытых источников.
Возрастная категория сайта: 18+
Тексты некоторых песен могут содержать нецензурные выражения, брань.
© 2021 guitar-chords.ru