#табулатура

    
I Want It

Listen to the track for the rythmic of the right hand:
D#---------------------------------
A#---------------------------------
F#---------------------------------
C#--10-10-10-8-x-8-x-8------------- RIFF 1
G#--10-10-10-8-x-8-x-8-------------
D#--8--8--8--6-x-6-x-6-------------

---------------------------------
---------------------------------
--------------------------------- RIFF 2
--x-x-x--10-10-10--8-------------
--x-x-x--10-10-10--8-------------
--x-x-x--8--8--8---6-------------

------------------------------------------------------
---11-11-11-11-11-11---------------------------------- Fast
--------------------10-10-10-10-10-10-10--9-9-9-9-9-9-
------------------------------------------------------
------------------------------------------------------ RIFF A
------------------------------------------------------

------------------------------
------------------------------ RIFF 3
------------------------------
-8--3--2--10------------------
-8--3--2--10------------------
-6--1--0--8-------------------

RIFF 1 } X4
RIFF 2 } X4
RIFF 1 } X5
RIFF 2 } X4
RIFF 1 } X5
RIFF A } X2
RIFF 3 } X6
RIFF 3 } X4 a little bit different more fast
RIFF 1 } X4
RIFF A } X2

© Авторские права на тексты, песни, видео и другую представленную информацию принадлежат правообладателям. Аккорды, табы, gtp и тексты песен взяты из открытых источников.
Возрастная категория сайта: 18+
Тексты некоторых песен могут содержать нецензурные выражения, брань.
© 2021 guitar-chords.ru