#табулатура

    
No Speech

TUNING: + Step Down (Eb ,Ab ,Db ,Gb ,Bb ,eb ,....from low to high)
-|-------11-12--------11-12--------12-11------11-9|---------------------------
-|------------------------------------------9-----|---------------------------
-|----13-----------14-----------14----------------|--6------------------------
-|-11-----------12--------------------------------|--6------------------------
-|---------------------------12-----------9-------|--4------------------------
-|------------------------------------------------|--4------------------------
play 2x... .fade in with this chord
-|---------------------|---------------------|--------------------------------
-|---------------------|---------------------|--------------------------------
-|-6--7----------------|-6--7----------------|-8--9--x9-x9-9--x9--------------
-|-6--7--x7x7-7--x4x4-4|-6--7--x7x7-7--x4x4-4|-x--x--xx-xx-x--xx--------------
-|-4--5--x7x7-7--x4x4-4|-4--5--x7x7-7--x4x4-4|-6--7--x7-x7-7--x7--------------
-|-4--5--x5x5-5--x2x2-2|-4--5--x5x5-5--x2x2-2|--------------------------------
this is before the first verse...
-|-----------|-----------|----------------------------------------------------
-|-----------|-----------|----------------------------------------------------
-|6--8--9--11|6--8--9--11|----------------------------------------------------
-|x--x--x--x-|x--x--x--x-|----------------------------------------------------
-|4--6--7--9-|4--6--7--9-|----------------------------------------------------
-|-----------|-----------|----------------------------------------------------
cont. of riff above........
-|---------------------------|------------------------------------------------
-|---------------------------|------------------------------------------------
-|9-9----11---12---8-8-------|9-9----11---12---8-8----------------------------
-|x-x----x----x----x-x---9-x9|x-x----x----x----x-x---9-x9---------------------
-|7-7----9----10---6-6---x-xx|7-7----9----10---6-6---x-xx---------------------
-|-----------------------7-x7|-----------------------7-x7---------------------
First part of the verses.....
-|-----------------------------|----------------------------------------------
-|-----------------------------|----------------------------------------------
-|9-9----11---12---x-14--16-x16|9-9----11---12---x-14--16-x16-----------------
-|x-x----x----x----x-x---x--xx-|x-x----x----x----x-x---x--xx------------------
-|7-7----9----10---x-12--14-x14|7-7----9----10---x-12--14-x14-----------------
-|-----------------------------|----------------------------------------------
second part of the verses
-|---------------------------|------------------------------------------------
-|---------------------------|------------------------------------------------
-|-------11---12---8-8-------|-------11---12---8-8----------------------------
-|2-2----x----x----x-x---9-x9|2-2----x----x----x-x---9-x9---------------------
-|2-2----9----10---6-6---x-xx|2-2----9----10---6-6---x-xx---------------------
-|0-0--------------------7-x7|0-0--------------------7-x7---------------------
^ ^these r played by 2nd guitar, but it sound fine playing it on 1.
-|-----------------------------|----------------------------------------------
-|-----------------------------|----------------------------------------------
-|-------11---12---x-14--16-x16|-------11---12---8-9--/11---------------------
-|2-2----x----x----x-x---x--xx-|2-2----x----x----8-9--/11---------------------
-|2-2----9----10---x-12--14-x14|2-2----9----10---6-7--/9----------------------
-|0-0--------------------------|0-0--------------6-7--/9----------------------
the 022xxx chords r played with*distortion B.T.W...
-|----------------------------------------------------------------------------
-|----------------------------------------------------------------------------
-|----------------------------------------------------------------------------
-|2-2----2-2------------------------------------------------------------------
-|2-2----2-2------------------------------------------------------------------
-|0-0----0-0------------------------------------------------------------------
this is played together with the part after the last bar...at the*
-|--------------------|--------------------|----------------------------------
-|--------------------|--------------------|----------------------------------
-|6--7----------------|6--7----------------|6--7------------------------------
-|6--7--x7x7-7--x4x4-4|6--7--x7x7-7--x4x4-4|6--7--x7x7-7--x4x4-4--------------
-|4--5--x7x7-7--x4x4-4|4--5--x7x7-7--x4x4-4|4--5--x7x7-7--x4x4-4--------------
-|4--5--x5x5-5--x2x2-2|4--5--x5x5-5--x2x2-2|4--5--x5x5-5--x2x2-2--------------
"No!Speech!" well this is the chorus
-|----------------------------------------------------------------------------
-|----------------------------------------------------------------------------
-|6--8--9--11---6--8--9--11---------------------------------------------------
-|x--x--x--x----x--x--x--x----------------------------------------------------
-|4--6--7--9----4--6--7--9----------------------------------------------------
-|----------------------------------------------------------------------------
still chorus...
-|1212-------------|1212--------|1212-------------|1212-----------------------
-|x-x--------------|x-x---------|x-x--------------|x-x------------------------
-|9-9--------x8----|9-9---------|9-9--------x8----|9-9------------------------
-|-----------xx---9|------------|-----------xx---9|---------------------------
-|-----------x6---x|------------|-----------x6---x|---------------------------
-|----------------7|------------|----------------7|---------------------------
^ ^play these with delay/echo effect(this is the bridge"i got to get home")
-|------------|------------|--------------------------------------------------
-|------------|------------|--------------------------------------------------
-|666-x6x6-9-8|666-x6x6-9-8|666-x6x6-9-8--------------------------------------
-|666-x6x6-9-8|666-x6x6-9-8|666-x6x6-9-8--------------------------------------
-|444-x4x4-7-6|444-x4x4-7-6|444-x4x4-7-6--------------------------------------
-|444-x4x4-7-6|444-x4x4-7-6|444-x4x4-7-6--------------------------------------
2nd bridge "I got to get,to got to get" part
-|----------------------------------------------------------------------------
-|9b-9b-5------5/9---9b/12---------------------------------------------------
-|----------------------------------------------------------------------------
-|----------------------------------------------------------------------------
-|----------------------------------------------------------------------------
-|----------------------------------------------------------------------------
solo part through the last part of the last chorussomtin' with these notes,
I'm not sure.

© Авторские права на тексты, песни, видео и другую представленную информацию принадлежат правообладателям. Аккорды, табы, gtp и тексты песен взяты из открытых источников.
Возрастная категория сайта: 18+
Тексты некоторых песен могут содержать нецензурные выражения, брань.
© 2021 guitar-chords.ru