#табулатура

    
Bad Obsession

Tune down 1/2 step: (6) = Eb (3) = Gb (5) = Ab (2) = Bb (4) = Db (1) = Eb
Pull-offs = p Slide = sl Full bend = ^ Half bend = 1/2^ Slide guitar up = /
Slide guitar down = \ P.M. = Palm Mute To look where the signs go, look directly down.
Intro Moderate Rock = 126 (Harmonica & cowbell)
Gtr. 1 sl. p p p p
|-------------------------|-------------------------|------------------3-|----------------------|
|-------------------------|-------------------------|---3--------------3-|----------------------|
|-------------------------|---------------12-12-(12)|---0-------2--0-----|---x--3--0--2--0--xx--|
|-------------------------|---------------12-12-(12)|-0-0--3-0--2--0-----|---x--3--0--2--0--xx--|
|-------------------------|-------------------------|--------------------|----------------------|
|-------------------------|-------------------------|--------------------|----------------------|
p p dim. (Gtr. 1 out)
|--------------------3----|-(3)---------------------|-(3)----------------|----------------------|
|--------------------3----|-(3)---------------------|-(3)----------------|----------------------|
|--x--3-----2--0--3-------|-------------------------|--------------------|----------------------|
|--x--3--0--2--0----------|-------------------------|--------------------|----------------------|
|-------(0)---------------|-------------------------|--------------------|----------------------|
|-------------------------|-------------------------|--------------------|----------------------|
*Gtr.2 (wslide) Slash vol. off  mf 
|-------------------------|-------------------------|--------------------|----------------------|
|-------------------------|-------------------------|-0----------------0-|(0)-//3\2--0-/3---0--|
|---------------12--------|-------------------------|-0-/-3--2--0-/-3--0-|(0)-//3\2--0-/3---0--|
|---------------12--------|-(12)-----------(12)-\-|-0-/-3--2--0-/-3--0-|(0)-//3\2--0-/3---0--|
|-------------------------|-(12)-----------(12)-\-|-0-/-3--2--0-/-3--0-|(0)-//3\2--0-/3---0--|
|-------------------------|-------------------------|--------------------|----------------------|
steady gliss. ~~
|-------------------------|-------------------------|--------------------|----------------------|
|(0)----------------------|----------------------12-|(12)-------------11/|/12---------------11//|
|(0)-------/3--32--0--/2/|/3--(3)///(7)-//------12-|(12)----------------|-----12--12--(12)-11//|
|(0)-------/3--32--0--/2/|/3--(3)///(7)-//------12-|(12)----------------|----------------------|
|(0)----------------------|-------------------------|--------------------|----------------------|
|-------------------------|-------------------------|--------------------|----------------------|
Gtr. 1 ^ p p p
|-------------3--3--3--3--|-3-----------------------|---------------------3|
|-------------3--3--3--3--|-3--5--------------------|---------------------3|
|-------------------------|----5--3--0-----0--------|(0)--3--0--2--0---0---|
|-------------------------|-------------2--0--------|(0)--3--0--2--0---0---|
|-------------------------|-------------------------|----------------------|
|-------------------------|-------------------------|----------------------|
let ring ---------------|
sl. Gtr. 2
|-------------------------|-------------------------||-------------------------------|
|-12--12------------------|-------------------------||-0-------------------------0---|
|-12------12-------12---12|-10/12--12----12\\\\||-0---///3-----2---0--/3----0---|
|-------------12---12---12|-10/12--12----12\\\\||-0---///3-----2---0--/3----0---|
|-------------------------|-------------------------||-0---///3-----2---0--/3----0---|
|-------------------------|-------------------------||-------------------------------|
p p p
|-3--------------------3--|-----------------------3-|--3---3-------------------------|
|-3--------------------3--|-x--x--------------------|--3---3----0----0---------------|
|----0--3-----2--0--0-----|-x--x--3--0--2--0--0-----|-----------0----0---------------|
|----0--3-----2--0--0-----|-x--x--3--0--2--0--0-----|-----------0----0---------------|
|-------------------------|-------------------------|--------------------------------|
|-------------------------|-------------------------|--------------------------------|

|-------------------------|-------------------------|----------------3---------------|
|(0)--//3\2---0-/3---0--|(0)----------------------|--------2/3-----3---------------|
|(0)--//3\2---0-/3---0--|(0)--/3-------32---0/3--|-(3)----------------------------|
|(0)--//3\2---0-/3---0--|(0)--/3-------32---0----|--------------------------------|
|(0)--//3\2---0-/3---0--|(0)----------------------|--------------------------------|
|-------------------------|-------------------------|--------------------------------|
p p p p p
|-------------------------|----------------------3--|-----------------------------3--|
|-x--x---------------x--x-|-x--x-----------------3--|---x--x-------------------------|
|-x--x--3--0---2--0--x--x-|-x--x--3--0---2--0-------|---x--x--3--0---2--0------------|
|-x--x--3--0---2--0--x--x-|-x--x--3--0---2--0-------|---x--x--3--0---2--0------------|
|-------------------------|-------------------------|--------------------------------|
|-------------------------|-------------------------|--------------------------------|

|--(3)-------------------|-------------------------|--------------------------------|
|--(3)-----------------0-|(0)-///3\\2--0-//3--0--|--(0)---------------------------|
|-------x-/3---2--0-/3--0-|(0)-///3\\2--0-//3--0--|--(0)---//3------3\2----0-/3---|
|-------x-/3---2--0-/3--0-|(0)-///3\\2--0-//3--0--|--(0)---//3------3\2----0-/3---|
|---------/3---2--0-/3--0-|(0)-///3\\2--0-//3--0--|--(0)---//3------3\2----0-/3---|
|-------------------------|-------------------------|--------------------------------|
1. I can't stop thinkin', think-in' 'bout sink-in', in down in-to my bed._
2.See additional lyrics (cont. in slashes)
|(3)----------------------|-------------------------|---------------------------------|
|-----------------x--x----|-------------------------|---------------------------------|
|-----------------x--x--0-|-------------------------|---------------------------------|
|-----------------x--x--0-|-------------------------|---------------------------------|
|-------------------------|-------------------------|---------------------------------|
|-------------------------|-------------------------|---------------------------------|
P.M. P.M.
|---------------------|-------------------------|--------------------|------------------------|
|---------------------|-------------------------|--------------------|---/2---3\2---3--3-----|
|(3)-------------(3)-|--------/3----------3--0-|----/3\2--0--2--0-|---/2---3\2---3--3-----|
|(3)-------------(3)-|-----0--/3---2---0--3--0-|-0--/3\2--0--2--0-|---/2---3\2---3--3-----|
|(3)-------------(3)-|-/2--0--/3---2---0-------|-0--/3\2--0--2--0-|---/2---3\2------------|
|---------------------|-------------------------|--------------------|-3----------------------|
I call my mother, she's just a cunt now. She said I'm sick in the head
|---------------------|-------------------------|--------------------|------------------------|
|(3)---2/3-----------|-------------------------|--------------------|------------------------|
|(3)-------32--0--0-|(0)--///3\\2---0/3-0---|----/3\\2--0--2--0|-----/3\\2--0--0------|
|(3)-----------------|-----///3\\2---0/3-0---|-0--/3\\2--0--2--0|-----/3\\2--0--0-/3---|
|---------------------|-----///3\\2-----------|-0--/3\\2--0--2--0|-0-0--------------------|
|---------------------|-------------------------|--------------------|------------------------|
She said, "You ain't spe-cial, so who you fool-in'? Don't try ta give me a line"
P.M. P.M. P.M.--|
|---------------------|-------------------------|--------------------|------------------------|
|---------------------|--------------------0----|(0)-----------------|------------------------|
|---------------------|-------/3\2--0/3--0----|------/3\2--0--2--0|----------2/3--32--0--0|
|-(3)--1/3-----------|-(3)-0-/3\2--0/3--0----|------/3\2--0--2--0|----------2/3--32--0--0|
|---------------------|-----0-/3\2------------|----0---------------|---0--0-----------------|
|---------------------|-------------------------|--------------------|------------------------|
But I can't stop thinkin' 'bout see-in' ya one more time,___________ Oh no.__
let ring
|---------------------|-------------------------|--------------------|------------------------|
|---------2/3---------|-------------------------|--------------------|------------------------|
|--/3--0------3---(3)|-------------------------|-----------0--0----0|-(0)--/3--2--0--2---0---|
|--/3--0--------------|-14---------(14)\\\\-|-10---(10)

© Авторские права на тексты, песни, видео и другую представленную информацию принадлежат правообладателям. Аккорды, табы, gtp и тексты песен взяты из открытых источников.
Возрастная категория сайта: 18+
Тексты некоторых песен могут содержать нецензурные выражения, брань.
© 2021 guitar-chords.ru