Civil War

(h) = hammer on
(p) = pull off

Intro:        
     1   2    3  4          1   2     3   4
E ||------------------------|------------------------|
B ||------------------------|------------------------|
G ||-----0---------0--------|-----0---------0--------|
D ||---2--2-2----2--2-----2-|---0--0-0----0--0-----0-|
A ||--2-2--2------2--0(h)2--|----2--2------2--0(h)2--|
E ||-0---------0------------|-3---------3------------|
     1   2     3   4          1   2     3   4
E  |------------------------|------------------------|
B  |------------------------|------------------------|
G  |-----0---------0--------|-----0---------2(p)0-0--|
D  |---2--2-2----2--2-----2-|---0--0-0----0------2---|
A  |----2--2------2--0(h)2--|----2--2------2---------|
E  |-0---------0------------|-3---------2------------|
     1   2     3   4          1   2     3   4
E  |-12--------10-----------|------------------------|
B  |------------------------|-10-11-12---------------|
G  |------------------------|------------------------|
D  |------------------------|------------------------|
A  |------------------------|------------------------|
E  |------------------------|------------------------|
     1   2     3   4          1   2     3   4
E  |-12--------10-----------|------------------------|
B  |------------------------|-10-11-12--10-8\7\5-----|
G  |------------------------|------------------------|
D  |------------------------|------------------------|
A  |------------------------|------------------------|
E  |------------------------|------------------------|

Singing starts.
Sorry, no chords. I'm away from my guitar right now and this
is all that I can remember off the top of my head since I haven't
played this tune for a while.


© Авторские права на тексты, песни, видео и другую представленную информацию принадлежат правообладателям. Аккорды, табы, gtp и тексты песен взяты из открытых источников.
Возрастная категория сайта: 18+
Тексты некоторых песен могут содержать нецензурные выражения, брань.
© 2021 guitar-chords.ru