#табулатура

                                                 
Coma

------------------|-------------------|------------------|------------------|
------------------|----------5--------|------------------|------------------|
------------------|----------2--------|------------------|------------------|
------------------|----------2--------|------------------|------------------|
------------------|----------0--------|------------------|------------------|
------------------|-------------------|------------------|------------------|

-------------------|------------------|-------------------|------------------|
--4----------------|------------------|--2----------------|------------------|
--2----------------|------------------|--2----------------|------------------|
--2----------------|------------------|--2----------------|------------------|
--0----------------|------------------|--0----------------|------------------|
-------------------|------------------|-------------------|------------------|

------------------|------------------|------------------|-------------------|
------------------|------------------|------------------|-------------------|
------------------|------------------|------------------|-------------------|
------------------|------------------|------------------|-------------------|
------------------|------------------|------------------|--3b---------------|
------------------|------------------|------------------|-------------------|

------------------|-----------------------|-----------------------|
------------------|-----------------------|-----------------------|
------------------|-----------------------|-----------------------|
------------------|--6---------5-------6--|----6--------5---------|
------------------|--4----0----3----0--4--|----4--0--0--3----0----|
------------------|-----------------------|-----------------------|

-----------------------|-----------------------|-----------------------|
-----------------------|-----------------------|-----------------------|
-----------------------|-----------------------|-----------------------|
--6---------5----------|-------------5---------|--6---------5----------|
--4----0----3----0--4~-|----7~-4--0--3----0----|--4----0----3----0--4~-|
-----------------------|-----------------------|-----------------------|

-------------------------|-----------------------|-----------------------------|
-------------------------|-----------------------|-----------------------------|
-------------------------|-----------------------|-----------------------------|
-------------5--5--4-----|--6---------5-------6--|----7--8--9--10--11--12--13--|
----7--4--0--3--3--2--0--|--4----0----3----0--4--|----5--6--7--8---9---10--11--|
-------------------------|-----------------------|-----------------------------|

--------------------|------------------|--------------------|------------------|
--------------------|------------------|--------------------|------------------|
--2--2--------------|------------------|--2--2--------------|------------------|
--2--2--------------|------------------|--2--2--------------|------------------|
--0--0--------------|------------------|--0--0--------------|------------------|
--------------------|------------------|--------------------|------------------|

--------------------|------------------|--------------------|------------------|
--------------------|------------------|--------------------|------------------|
--------------------|------------------|--------------------|------------------|
--5--5--------------|------------------|--5--5--------------|------------------|
--5--5--------------|------------------|--5--5--------------|------------------|
--3--3--------------|------------------|--3--3--------------|------------------|

--------------------|------------------|--------------------|
--------------------|------------------|--------------------|
--------------------|------------------|--------------------|
--3--3--------------|------------------|--3--3--------------|
--3--3--------------|------------------|--3--3--------------|
--1--1--------------|------------------|--1--1--------------|

--------------------|---------------------------|-------------------------|
--------------------|---------------------------|-------------------------|
----------------x-x-|--13----13----13--13----8--|----8--8-----8--8----12--|
----------------x-x-|--13----13----13--13----8--|----8--8-----8--8----12--|
----------------x-x-|--11----11----11--11----6--|----6--6--x--6--6----10--|
--------------------|---------------------------|-------------------------|

---------------------------|---------------------|--------------------|
------------------------7--|------7----7--7------|--6--6--------------|
----12--12----12--12----7--|------7----7--7------|--7--7--------------|
----12--12----12--12----7--|------7----7--7------|--7--7--------------|
----10--10----10--10----5--|------5----5--5------|--5--5--------------|
---------------------------|---------------------|--------------------|

------------------|--------------------|------------------|--------------------|
------------------|--5--5--------------|------------------|--4--4--------------|
------------------|--5--5--------------|------------------|--5--5--------------|
------------------|--5--5--------------|------------------|--5--5--------------|
------------------|--3--3--------------|------------------|--3--3--------------|
------------------|--------------------|------------------|--------------------|

------------------|-------------------------|-----------------------|
------------------|-------------------------|-----------------------|
------------------|--8----8------8--8----3--|------3-----3--3----7--|
------------------|--8----8--x-x-8--8----3--|------3--x--3--3----7--|
------------------|--6----6--x-x-6--6----1--|------1--x--1--1----5--|
------------------|-------------------------|-----------------------|

-------------------------|--------------------------|--------------------|
-------------------------|--------------------------|--1--1--------------|
----7--7------7--7----2--|------2------2--2--2------|--2--2--------------|
----7--7--x-x-7--7----2--|------2--x-x-2--2--2--x-x-|--2--2--------------|
----5--5--x-x-5--5----0--|------0--x-x-0--0--0--x-x-|--0--0--------------|
-------------------------|--------------------------|--------------------|

------------------|--3--3--------------|------------------|--3--3--------------|
------------------|--3--3--------------|------------------|--3--3--------------|
------------------|--4--4--------------|------------------|--3--3--------------|
------------------|--5--5--------------|------------------|--5--5--------------|
------------------|--5--5--------------|------------------|--5--5--------------|
------------------|--3--3--------------|------------------|--3--3--------------|

------------------|------------------------|-----------------------|
------------------|------------------------|-----------------------|
------------------|--4----4-----4--4-------|-----------------------|
------------------|--4----4--x--4--4----4--|------4----4--4--4--x--|
------------------|--2----2--x--2--2----4--|------4----4--4--4--x--|
------------------|---------------------2--|------2----2--2--2--x--|

------------------------|-----------------------|-----------------------|
------------------------|-----------------------|-----------------------|
--4----4----4--5--6--7--|------7----7--------2--|------2----2-----------|
--4----4----4--5--6--7--|------7----7--------2--|------2----2--------2--|
--2----2----2--3--4--5--|------5----5-----4--0--|------0----0--------2--|
------------------------|--------------0--------|--------------3--2--0--|

-----------------------|-----------------------|-------------------------|
-----------------------|-----------------------|-------------------------|
-----------------------|--------------------7--|------7------7--6-----5--|
------2--x--2-------5--|------5----5--------7--|------7--x-x-7--6--x--5--|
------2--x--2-------5--|------5----5--------5--|------5--x-x-5--4--x--3--|
------0--x--0----2--3--|------3----3--2--0-----|-------------------------|

-------------------------|--------------------------|-----------------------|
-------------------------|--------------------------|-----------------------|
----4--5--4--5--4--5--4--|--5--4--5--4--5--5--------|-----------------------|
----4--5--4--5--4--5--4--|--5--4--5--4--5--5--------|--6---------5-------6--|
----2--3--2--3--2--3--2--|--3--2--3--2--3--3--0--2--|--4----0----3----0--4--|
-------------------------|--------------------------|-----------------------|

-----------------------|-----------------------|-----------------------|
-----------------------|-----------------------|-----------------------|
-----------------------|-----------------------|-----------------------|
----6--------5---------|--6---------5----------|-------------5---------|
----4--0--0--3----0----|--4----0----3----0--4~-|----7~-4--0--3----0----|
-----------------------|-----------------------|-----------------------|

-----------------------|-------------------------|-----------------------|
-----------------------|-------------------------|-----------------------|
-----------------------|-------------------------|-----------------------|
--6---------5----------|-------------5--5--4-----|--6---------5----------|
--4----0----3----0--4~-|----7--4--0--3--3--2--0--|--4----0----3----0--4~-|
-----------------------|-------------------------|-----------------------|

-------------------------|--------------------|------------------|
-------------------------|--------------------|------------------|
-------------------------|--------------------|------------------|
-------------------------|--2--2--------------|------------------|
----7--4--0--3--3--2--1--|--0--0--------------|------------------|
-------------------------|--------------------|------------------|

-------------------|-------------------|------------------|-------------------|
-------------------|----------------7--|------------------|----------------8--|
-------------------|----------------7--|------------------|----------------7--|
-------------------|-------------------|------------------|-------------------|
-------------------|-------------------|------------------|-------------------|
------5~-----------|-------------------|------------------|-------------------|

------------------|--------------------|------------------|
------------------|----------------11~-|------------------|
------------------|----------------10~-|------------------|
------------------|--------------------|------------------|
------------------|--------------------|------------------|
------------------|--------------------|------------------|

--------11--11/--------|-------------------------|-----------------------|
-----------------------|-------------------------|-----------------------|
-----------------------|-------------------------|--------------------5--|
--------------------3--|----3--------3--------3--|------3-------------5--|
--------------------3--|----3--------3--------3--|------3-------3--5--3--|
--------------------1--|----1--1--1--1--1--1--1--|------1----5-----------|

------------------------|------------------------|-------------------------|
------------------------|------------------------|-------------------------|
------5--x--5--5--x--5--|------5------5--5----4--|----3--4--3--4--3--4--3--|
------5--x--5--5--x--5--|------5--x-x-5--5----4--|----3--4--3--4--3--4--3--|
------3--x--3--3--x--3--|------3--x-x-3--3----2--|----1--2--1--2--1--2--1--|
------------------------|------------------------|-------------------------|

--------------------------|-----------------------|-----------------------|
--------------------------|-----------------------|-----------------------|
--4--3--4--3--4--4--------|-----------------------|-----------------------|
--4--3--4--3--4--4--------|--4---------3-------4--|----4--------3---------|
--2--1--2--1--2--2--------|--2---------1-------2--|----2--------1---------|
--------------------3--0--|-------0---------0-----|-------3--0-------0----|

-----------------------|-----------------------|-----------------------|
-----------------------|-----------------------|-----------------------|
-----------------------|-----------------------|-----------------------|
--4---------3-------4--|----4--------3---------|--4---------3-------4--|
--2---------1-------2--|----2--------1---------|--2---------1-------2--|
-------0---------0-----|-------3--0-------0----|-------0---------0-----|

-----------------------|-----------------------|-----------------------|
-----------------------|-----------------------|-----------------------|
-----------------------|-----------------------|-----------------------|
----4--------3---------|--4---------3-------4--|----4--------3---------|
----2--------1---------|--2---------1-------2--|----2--------1---------|
-------3--0-------0----|-------0---------0-----|-------3--0-------0----|

-----------------------|-----------------------|-----------------------|
-----------------------|-----------------------|-----------------------|
-----------------------|-----------------------|-----------------------|
--6---------5-------6--|----6--------5---------|--6---------5----------|
--4----0----3----0--4--|----4--0--0--3----0----|--4----0----3----0--4~-|
-----------------------|-----------------------|-----------------------|

-----------------------|-----------------------|-------------------------|
-----------------------|-----------------------|-------------------------|
-----------------------|-----------------------|-------------------------|
-------------5---------|--6---------5----------|-------------5--5--4-----|
----7~-4--0--3----0----|--4----0----3----0--4~-|----7--4--0--3--3--2--0--|
-----------------------|-----------------------|-------------------------|

-----------------------|-------------------------|--------------------|
-----------------------|-------------------------|-----3--------------|
-----------------------|-------------------------|-----2--------------|
--6---------5-------6--|----5--4--3--2--5--4--3--|-----0--------------|
--4----0----3----0--4--|----3--2--1--0--3--2--1--|--0-----------------|
-----------------------|-------------------------|--------------------|

------------------|-----5--------------|--------------------|
------------------|-----5--------------|--------------------|
------------------|-----2--------------|--------------x--4--|
------------------|-----2--------------|--------------x--4--|
------------------|--0-----------------|--------------x--2--|
------------------|--------------------|--------------------|

------------------------|-------------------------|------------------------|
------------------------|-------------------------|------------------------|
------4--x-x-4--4----4--|----4--4--x-x-4--4-------|------------------------|
------4--x-x-4--4----4--|----4--4--x-x-4--4----4--|------4--x-x-4--4----4--|
------2--x-x-2--2----2--|----2--2--x-x-2--2----4--|------4--x-x-4--4----4--|
------------------------|----------------------2--|------2--x-x-2--2----2--|

------------------------|-----------------2--|----------------0--|
---------------------3--|------3----------3--|----------------0--|
---------------------0--|------0----------2--|-------------------|
------4--x--4-----4--0--|------0----------0--|-------------------|
------4--x-----4-----x--|------x----------0--|-------------------|
------2--x-----------3--|------3-------------|-------------------|

------------------|----------------0--|------------------|------------------|
------------------|----------------0--|------------------|------------------|
------------------|-------------------|------------------|------------------|
------------------|-------------------|------------------|------------------|
------------------|-------------------|------------------|------------------|
------------------|-------------------|------------------|------------------|

--5----------------|------------------|------------------|------------------|
--5----------------|------------------|------------------|------------------|
--2----------------|------------------|------------------|------------------|
--2----------------|------------------|------------------|------------------|
-------------------|------------------|------------------|------------------|
-------------------|------------------|------------------|------------------|

------------------|------------------|------------------|------------------|
------------------|------------------|------------------|------------------|
------------------|------------------|------------------|------------------|
------------------|------------------|------------------|------------------|
------------------|------------------|------------------|------------------|
------------------|------------------|------------------|------------------|

------------------|------------------|------------------|------------------|
------------------|------------------|------------------|------------------|
------------------|------------------|------------------|------------------|
------------------|------------------|------------------|------------------|
------------------|------------------|------------------|------------------|
------------------|------------------|------------------|------------------|

------------------|------------------|------------------|------------------|
------------------|------------------|------------------|------------------|
------------------|------------------|------------------|------------------|
------------------|------------------|------------------|------------------|
------------------|------------------|------------------|------------------|
------------------|------------------|------------------|------------------|

------------------|------------------|------------------|------------------|
------------------|------------------|------------------|------------------|
------------------|------------------|------------------|------------------|
------------------|------------------|------------------|------------------|
------------------|------------------|------------------|------------------|
------------------|------------------|------------------|------------------|

------------------|------------------|------------------|------------------|
------------------|------------------|------------------|------------------|
------------------|------------------|------------------|------------------|
------------------|------------------|------------------|------------------|
------------------|------------------|------------------|------------------|
------------------|------------------|------------------|------------------|

------------------|------------------|------------------|------------------|
------------------|------------------|------------------|------------------|
------------------|------------------|------------------|------------------|
------------------|------------------|------------------|------------------|
------------------|------------------|------------------|------------------|
------------------|------------------|------------------|------------------|

------------------|------------------|------------------|------------------|
------------------|------------------|------------------|------------------|
------------------|------------------|------------------|------------------|
------------------|------------------|------------------|------------------|
------------------|------------------|------------------|------------------|
------------------|------------------|------------------|------------------|

------------------|------------------|------------------|------------------|
------------------|------------------|------------------|------------------|
------------------|------------------|------------------|------------------|
------------------|------------------|------------------|------------------|
------------------|------------------|------------------|------------------|
------------------|------------------|------------------|------------------|

------------------|------------------|------------------|------------------|
------------------|------------------|------------------|------------------|
------------------|------------------|------------------|------------------|
------------------|------------------|------------------|------------------|
------------------|------------------|------------------|------------------|
------------------|------------------|------------------|------------------|

------------------|------------------|------------------|------------------|
------------------|------------------|------------------|------------------|
------------------|------------------|------------------|------------------|
------------------|------------------|------------------|------------------|
------------------|------------------|------------------|------------------|
------------------|------------------|------------------|------------------|

-------------------|------------------|------------------|------------------|
-------------------|------------------|------------------|------------------|
-------------------|------------------|------------------|------------------|
-------------------|------------------|------------------|------------------|
--0----------------|------------------|------------------|------------------|
-------------------|------------------|------------------|------------------|

------------------|-------------------|------------------|-------------------|
------------------|--5----------------|------------------|--4----------------|
------------------|--2----------------|------------------|--2----------------|
------------------|--2----------------|------------------|--2----------------|
------------------|--0----------------|------------------|--0----------------|
------------------|-------------------|------------------|-------------------|

------------------|-------------------|------------------|
------------------|--2----------------|------------------|
------------------|--2----------------|------------------|
------------------|--2----------------|------------------|
------------------|--0----------------|------------------|
------------------|-------------------|------------------|

----------------------------------------------|
--1h2h1h2h1h2h1h2h1h2h1h2h1h2h1h2h1h2h1h2h1h2h|
--2-------------------------------------------|
--2-------------------------------------------|
--0-------------------------------------------|
----------------------------------------------|

----------------------------------------|--------------------------|
--1h2h1h2h1h2h1h2h1h2h1h2h1h2h1h2-------|--------------------------|
----------------------------------------|--------------------------|
----------------------------------------|--------------------------|
----------------------------------12/---|--0--0--0--0--0--0--0--0--|
----------------------------------------|--------------------------|

--------------------------|--------------------------|
--------------------------|--------------------------|
--------------------------|--2--2--2--2--2--2--2--2--|
--------------------------|--2--2--2--2--2--2--2--2--|
--0--0--0--0--0--0--0--0--|--0--0--0--0--0--0--0--0--|
--------------------------|--------------------------|

--------------------------|-----------------------|-----------------------|
--------------------------|-----------------------|-----------------------|
--2--2--2--2--2--2--2--2--|-----------------------|-----------------------|
--2--2--2--2--2--2--2--2--|--6---------5-------6--|----6--------5---------|
--0--0--0--0--0--0--0--0--|--4----0----3----0--4--|----4--0--0--3----0----|
--------------------------|-----------------------|-----------------------|

-----------------------|-----------------------|-----------------------|
-----------------------|-----------------------|-----------------------|
-----------------------|-----------------------|-----------------------|
--6---------5----------|-------------5---------|--6---------5----------|
--4----0----3----0--4~-|----7~-4--0--3----0----|--4----0----3----0--4~-|
-----------------------|-----------------------|-----------------------|

-------------------------|-----------------------|-------------------------|
-------------------------|-----------------------|-------------------------|
-------------------------|-----------------------|-------------------------|
-------------5--5--4-----|--6---------5----------|-------------------------|
----7--4--0--3--3--2--0--|--4----0----3----0--4~-|----3--2--1--0-----------|
-------------------------|-----------------------|----------------0--1--2--|

-------------------|------------------|------------------|-------------------|
-------------------|------------------|------------------|-------------------|
-------------------|------------------|------------------|-------------------|
--5----------------|------------------|------------------|----------------2--|
--5----------------|------------------|------------------|----------------0--|
--3----------------|------------------|------------------|-------------------|

-------------------------|--------------------------|-------------------------|
-------------------------|--------------------------|-------------------------|
-------------------------|--------------------------|----2--------------------|
----2--------------2-----|--------2--------------2--|-------------------2-----|
----0--0--0--0--0--0--0--|--0--0--0--0--0--0--0--0--|-------0--0--0--0--0--0--|
-------------------------|--------------------------|-------------------------|

--------------------------|-------------------------|--------------------------|
--------------------------|-------------------------|--------------------------|
--------------------------|-------------------------|--------------------------|
--------2-----------------|-------------------------|--------------------------|
--0--0--0--0--0--0--0--5--|----5--------------5-----|--------5--------------5--|
-----------------------3--|----3--3--3--3--3--3--3--|--3--3--3--3--3--3--3--3--|

-------------------------|--------------------------|-------------------------|
-------------------------|--------------------------|-------------------------|
-------------------------|--------------------------|-------------------------|
-------------------------|--------------------------|-------------------------|
----5--------------5-----|--------5--------------3--|----3--------------3-----|
----3--3--3--3--3--3--3--|--3--3--3--3--3--3--3--1--|----1--1--1--1--1--1--1--|

--------------------------|-------------------------|--------------------------|
--------------------------|-------------------------|--------------------------|
--------------------------|-------------------------|-----------------------5--|
--------------------------|-------------------------|--------------3--3--3--5--|
--------3--------------3--|----3--------------3-----|-----3--------3--3--3--3--|
--1--1--1--1--1--1--1--1--|----1--1--1--1--1--1--1--|--1--1--1--1--1--1--1-----|

-----------------------|-----------------------|----------------------|
-----------------------|-----------------------|----------------------|
------5--x--5--5-------|--------------------7--|------7----7--7----2--|
------5--x--5--5----5--|------5--x--5--5----7--|------7----7--7----2--|
------3--x--3--3----5--|------5--x--5--5----5--|------5----5--5----0--|
--------------------3--|------3--x--3--3-------|----------------------|

------------------------|-------------------------|---------------------------|
------------------------|-------------------------|---------------------------|
------2--x--2--2--x--5--|----5--------5--------5--|--------5------5--5-----5--|
------2--x--2--2--x--5--|----5--------5--------5--|--------5------5--5-----5--|
------0-----0--0-----3--|----3--3--3-----3--3-----|--3--3-----3-3-------3-----|
------------------------|-------------------------|---------------------------|

---------------------------|---------------------------|
---------------------------|---------------------------|
--------5------5--5-----5--|--------5------5--5--------|
--------5------5--5-----5--|--------5------5--5-----5--|
--3--3-----3-3-------3-----|--3--3-----3-3-------3--5--|
---------------------------|------------------------3--|

--------------------------|--------------------------|
--------------------------|--------------------------|
--------------------------|--------------------------|
--------5--------5-----5--|--------5--------5-----5--|
--------5--------5-----5--|--------5--------5-----5--|
--3--3-----3--3-----3-----|--3--3-----3--3-----3-----|

--------------------------|--------------------------|------------------------|
--------------------------|--------------------------|------------------------|
--------------------------|--------------------------|------------------------|
--------5--------5-----5--|--------5-----5--5--5--3--|------3--------3-----3--|
--------5--------5-----5--|--------5-----5--5--5--3--|------3--------3-----3--|
--3--3-----3--3-----3-----|--3--3-----3--3--3--3--1--|------1--1--1-----1--1--|

-----------------------|-----------------------|------------------------|
-----------------------|-----------------------|------------------------|
--------------------5--|------5--x--5--5----5--|------5------5--5----4--|
------3-------------5--|------5--x--5--5----5--|------5--x-x-5--5----4--|
------3-------3--5--3--|------3--x--3--3----3--|------3--x-x-3--3----2--|
------1----5-----------|-----------------------|------------------------|

-------------------------|--------------------------||------------------------|
-------------------------|--------------------------||------------------------|
----3--4--3--4--3--4--3--|--4--3--4--3--4--4--------||*-----------------------|
----3--4--3--4--3--4--3--|--4--3--4--3--4--4--------||*--4---------3-------4--|
----1--2--1--2--1--2--1--|--2--1--2--1--2--2--------||---2---------1-------2--|
-------------------------|--------------------3--0--||--------0---------0-----|
3x
------------------------||-----------------------|-----------------------|
------------------------||-----------------------|-----------------------|
-----------------------*||-----------------------|-----------------------|
----4--------3---------*||--6---------5-------6--|----6--------5---------|
----2--------1----------||--4----0----3----0--4--|----4--0--0--3----0----|
-------3--0-------0-----||-----------------------|-----------------------|

-----------------------|-----------------------|-----------------------|
-----------------------|-----------------------|-----------------------|
-----------------------|-----------------------|-----------------------|
--6---------5----------|-------------5---------|--6---------5----------|
--4----0----3----0--4~-|----7~-4--0--3----0----|--4----0----3----0--4~-|
-----------------------|-----------------------|-----------------------|

-------------------------|-----------------------|-------------------------|
-------------------------|-----------------------|-------------------------|
-------------------------|-----------------------|-------------------------|
-------------5--5--4-----|--6---------5----------|-------------------------|
----7--4--0--3--3--2--0--|--4----0----3----0--4~-|----7--4--0--3--3--2--1--|
-------------------------|-----------------------|-------------------------|

------------------|------------------|------------------|------------------|
------------------|------------------|------------------|------------------|
------------------|------------------|------------------|------------------|
------------------|------------------|------------------|------------------|
------------------|------------------|------------------|------------------|
------------------|------------------|------------------|------------------|

------------------|------------------|------------------|----------------------|
------------------|------------------|------------------|----------------------|
------------------|------------------|------------------|----------------------|
------------------|------------------|------------------|----------5--5--5--3--|
------------------|------------------|------------------|----------5--5--5--3--|
------------------|------------------|------------------|----------3--3--3--1--|

------------------------|--------------------------|-------------------------|
------------------------|--------------------------|-------------------------|
------------------------|-----------------------5--|------5--x-x-5--5-----5--|
------3-----------------|-----------------------5--|------5--x-x-5--5--x--5--|
------3--------3-----3--|--------3--------3--5--3--|------3--x-x-3--3--x--3--|
------1--1--1--1--1--1--|--1--1--1--0--5-----------|-------------------------|

----------------------|----------------------|-------------------------|
----------------------|----------------------|-------------------------|
------5----5--6-------|----------------------|----------------------4--|
------5----5--6-------|----------------------|-------------0--2-----4--|
------3----3--4----5~-|------0----4~---0--3~-|-------0--2--------0--2--|
----------------------|----------------------|----3--------------------|

-------------------------|-------------------------|------------------------|
-------------------------|-------------------------|------------------------|
------4--x-x-4--5--6--7--|------7--x-x-7--------2--|------2--x--2-----------|
------4--x-x-4--5--6--7--|------7--x-x-7--------2--|------2--x--2--------2--|
------2--x-x-2--3--4--5--|------5--x-x-5-----4--0--|------0--x--0--------2--|
-------------------------|----------------0--------|---------------3--2--0--|

------------------------|-------------------------|----------------------|
------------------------|-------------------------|----------------------|
------------------------|----------------------7--|------7----7--6----5--|
------2--x-x-2-------5--|------5--x-x-5--------7--|------7----7--6----5--|
------2--x-x-2-------5--|------5--x-x-5--------5--|------5----5--4----3--|
------0--x-x-0----2--3--|------3--x-x-3--2--0-----|----------------------|

-------------------------|--------------------------|----------------------|
-------------------------|--------------------------|----------------------|
----4--5--4--5--4--5--4--|--5--4--5--4--5-----------|----------------------|
----4--5--4--5--4--5--4--|--5--4--5--4--5--------2--|------2----2--2----5--|
----2--3--2--3--2--3--2--|--3--2--3--2--3--------2--|------2----2--2----5--|
-------------------------|-----------------3--2--0--|------0----0--0----3--|

----------------------|----------------------|----------------------|
----------------------|----------------------|----------------------|
-------------------7--|------7----7--7----2--|------2----2--2----5--|
------5----5--5----7--|------7----7--7----2--|------2----2--2----5--|
------5----5--5----5--|------5----5--5----0--|------0----0--0----3--|
------3----3--3-------|----------------------|----------------------|

-----------------------|----------------------|-------------------------|
-----------------------|----------------------|-------------------------|
------5----5-----------|----------------------|-------------------------|
------5----5--------5--|------5----5----------|-------------------------|
------3----3--2--0--5--|------5----5--4----3--|-------3-----3-----3-----|
--------------------3--|------3----3--2----1--|----0--1--0--1--0--1--0--|

-------------------------|------------------------|------------------------|
-------------------------|------------------------|------------------------|
----------------------2--|------2--x-x-2--2----5--|------5--x-x-5--5-------|
----------------------2--|------2--x-x-2--2----5--|------5--x-x-5--5----5--|
--3-----3-----3--5----0--|------0--0-0-0--0----3--|------3--3-3-3--3----5--|
--1--0--1--0--1--3-------|------------------------|---------------------3--|

-------------------------|-----------------------|-----------------------|
-------------------------|-----------------------|-----------------------|
----------------------7--|------7--6--7--7-------|--------------------5--|
------5--x-x-5--5--x--7--|------7--6--7--7----3--|------3--x--3--3----5--|
------5--x-x-5--5--x--5--|------5--4--5--5----3--|------3--x--3--3----3--|
------3--3-3-3--3--x-----|--------------------1--|------1--1--1--1-------|

------------------------|-------------------------|--------------------------|
------------------------|-------------------------|--------------------------|
------5--x-x-5--4----3--|-------3-----3-----3-----|--3-----3-----3--5--5--7--|
------5--x-x-5--4----3--|-------3-----3-----3-----|--3-----3-----3--5--5--7--|
------3--3-3-3--2----1--|----0--1--0--1--0--1--0--|--1--0--1--0--1--3--3--5--|
------------------------|-------------------------|--------------------------|

---------------------------|---------------------------|
---------------------------|---------------------------|
--7--7--7--x-x-7--7----10--|------10--x-x-10--10----5--|
--7--7--7--x-x-7--7----10--|------10--x-x-10--10----5--|
--5--5--5--5-5-5--5----8---|------8---8-8-8---8-----3--|
---------------------------|---------------------------|

------------------------|------------------------|------------------------|
------------------------|------------------------|------------------------|
------5--x-x-5--5-------|---------------------3--|------3--x-x-3--3-------|
------5--x-x-5--5----5--|------5--x-x-5--5----3--|------3--x-x-3--3----3--|
------3--3-3-3--3----5--|------5--x-x-5--5----1--|------1--1-1-1--1----3--|
---------------------3--|------3--3-3-3--3-------|---------------------1--|

--------------------------|-------------------------|--------------------------|
--------------------------|-------------------------|--------------------------|
-------------10--10----8--|----7--8--7--8--7--8--7--|--8--7--8--7--8-----------|
------3--x-x-10--10----8--|----7--8--7--8--7--8--7--|--8--7--8--7--8--3--3--5--|
------3--x-x-8---8-----6--|----5--6--5--6--5--6--5--|--6--5--6--5--6--3--3--5--|
------1--1-1--------------|-------------------------|-----------------1--1--3--|

----------------------|-----------------------|----------------------|
----------------------|-----------------------|----------------------|
-------------------3--|------3--x--3--3-------|-------------------5--|
------5----5--5----3--|------3--x--3--3----3--|------3----3--3----5--|
------5----5--5----1--|------1--1--1--1----3--|------3----3--3----3--|
------3----3--3-------|--------------------1--|------1----1--1-------|

------------------------|------------------------|------------------------|
------------------------|------------------------|------------------------|
------5--x-x-5--5----8--|------8--x-x-8--8----3--|------3--x-x-3----------|
------5--x-x-5--5----8--|------8--x-x-8--8----3--|------3--x-x-3-------6--|
------3--3-3-3--3----6--|------6--6-6-6--6----1--|------1--1-1-1--0----6--|
------------------------|------------------------|---------------------4--|

-------------------------|-------------------------|------------------------|
-------------------------|-------------------------|------------------------|
-------------------------|----------------------5--|------5--x-x-5--5----8--|
----5--6--5--6--5--6--5--|--6--5--6--5--6--8----5--|------5--x-x-5--5----8--|
----5--6--5--6--5--6--5--|--6--5--6--5--6--8----3--|------3--3-3-3--3----6--|
----3--4--3--4--3--4--3--|--4--3--4--3--4--6-------|------------------------|

-------------------------|------------------------|-----------------------|
-------------------------|------------------------|-----------------------|
----8--8--x--8--8--x--3--|------3--x--3--3--x-----|-----------------------|
----8--8--x--8--8--x--3--|------3--x--3--3--x--3--|------3--x--3--3----6--|
----6--6--6--6--6--6--1--|------1--1--1--1--x--3--|------3--x--3--3----6--|
-------------------------|---------------------1--|------1--1--1--1----4--|

-----------------------|------------------------|-------------------------|
-----------------------|------------------------|-------------------------|
--------------------8--|------8--x-x-8--7----6--|----5--6--5--6--5--6--5--|
------6--6--6--6----8--|------8--x-x-8--7----6--|----5--6--5--6--5--6--5--|
------6--6--6--6----6--|------6--6-6-6--5----4--|----3--4--3--4--3--4--3--|
------4--x--4--4-------|------------------------|-------------------------|

-------------------------|-------------------------|-------------------------|
-------------------------|-------------------------|-------------------------|
--6--5--6--5--6--5----6--|----5--6--5--6--5--6--5--|--6--5--6--5--6--5----6--|
--6--5--6--5--6--5----6--|----5--6--5--6--5--6--5--|--6--5--6--5--6--5-------|
--4--3--4--3--4--3----4--|----3--4--3--4--3--4--3--|--4--3--4--3--4--3-------|
-------------------------|-------------------------|-------------------------|

------------------------------|-----------------------------|------------------|
------------------------------|-----------------------------|------------------|
---------6-----------6--------|------6----------6--8----10--|------------------|
------------------------------|-----------------6--8----10--|------------------|
---4-4-4-----4-4-4-4----4-4-4-|--4-4----4-4-4-4-4--6----8---|------------------|
------------------------------|-----------------------------|------------------|

------------------|------------------|------------------|------------------|
------------------|------------------|------------------|------------------|
------------------|------------------|------------------|------------------|
------------------|------------------|------------------|------------------|
------------------|------------------|------------------|------------------|
------------------|------------------|------------------|------------------|

------------------|------------------||
------------------|------------------||
------------------|------------------||
------------------|------------------||
------------------|------------------||
------------------|------------------||

© Авторские права на тексты, песни, видео и другую представленную информацию принадлежат правообладателям. Аккорды, табы, gtp и тексты песен взяты из открытых источников.
Возрастная категория сайта: 18+
Тексты некоторых песен могут содержать нецензурные выражения, брань.
© 2021 guitar-chords.ru