This is one of GUNS N' ROSES best song if you ask me.
I saw that no one had tabbed the second solo so I did as
well as the rest of the song. If you have any questions,
Comments, additions, or Corrections feel free to e-mail
them to me.
P.S. Tune your guitar down half a step.
Riff 1: used in intro and the verses.
E|--3----3----------0---------------0--------------|
B|--3-----3-3--3---3-3-----------1---1--1----------|
G|--0------0---2--2---2-----------0---0--0------0--|
D|--X----------0-------0--0h2-2----2-------0h2-2---|
A|--2---------------------0h3--------------0h3-----|
E|--3----------------------------------------------|

E|-------3-----------0-----------------------||
B|--------3-3-------3-3------1----1--1-1-----||
G|--0------0---0h2-2---2-------0---0--0-0----||
D|--x----------0--------0---2---2---2----2---||
A|--2---------------------3------3--------3--||
E|--3----------------------------------------||
Riff 2: used in intro and the choruses.
    G     D     C     C 
E|-----|-----|-----|-----|
B|-----|-----|-----|-----|
G|--4--|--7--|--5--|--5--|
D|--5--|--7--|--5--|--5--|
A|--5--|--5--|--3--|--3--|
E|--3--|-----|-----|-----|
Solo 1:
E|-------------------------------------------------------|
B|-----------------15-------------------------15/17--15--|
G|--12-14brp12-14-----14br-1212~~~---------12------------|
D|--------------------------------------/14--------------|
A|-------------------------------------------------------|
E|-------------------------------------------------------|

E|----------------------------------------15----------15-|
B|-13p12-13/15---13p12-13---12--------1213--1312---/17---|
G|-------------------------------------------------------|
D|----------------------------14-------------------------|
A|-------------------------------------------------------|
E|-------------------------------------------------------|

E|-17br17---17br17br15-------22--20192019-22--20-2020----|
B|---------------------------------------------------17--|
G|-------------------------------------------------------|
D|-------------------------------------------------------|
A|-------------------------------------------------------|
E|-------------------------------------------------------|

E|--------------------15--||
B|--15brbr----------------||
G|----------14brbr--12----||
D|------------------------||
A|------------------------||
E|------------------------||
Solo 2:
E|-------------------------------------------------------|
B|--19b~~~r-19---19brp17-19-1717----20-17--20-17br---|
G|-------------------------------------------------------|
D|-------------------------------------------------------|
A|-------------------------------------------------------|
E|-------------------------------------------------------|

E|----------------------------------------16---18b-18p16-|
B|-1517--1517--------1517---------------13--16-----------|
G|-----------------------------------/13-----------------|
D|-----17----19br1719----19br19br17----------------------|
A|-------------------------------------------------------|
E|-------------------------------------------------------|

E|-1618P161620192022b--20192022b--20192022b-22b22b-------|
B|------------------------------------------------2022b--|
G|-------------------------------------------------------|
D|-------------------------------------------------------|
A|-------------------------------------------------------|
E|-------------------------------------------------------|

E|-------------------------------------------------------|
B|--2022br-202222b-202220--20~~---2019----19br-17191717--|
G|-------------------------------------------------------|
D|-------------------------------------------------------|
A|-------------------------------------------------------|
E|-------------------------------------------------------|

E|-------------------------------------------------------|
B|-2017--171512~~--------------------------------|
G|------------------------12~--11~---11br-9~---7---5/4---|
D|----------------------------------------------------5--|
A|-------------------------------------------------------|
E|-------------------------------------------------------|
Here's The Order:
RIFF 1 (00:00) 1X
RIFF 2 (OO:15) 2X
RIFF 1 (OO:30) 2X
RIFF 2 (00:59) 4X
SOLO 1 (O1:29) 1X
RIFF 1 (01:59) 2X
RIFF 2 (02:27) 4X-play all the way through the solo until 3:54
SOLO 2 (02:56) 1X
RIFF 2 (04:51) 4x

© Авторские права на тексты, песни, видео и другую представленную информацию принадлежат правообладателям. Аккорды, табы, gtp и тексты песен взяты из открытых источников.
Возрастная категория сайта: 18+
Тексты некоторых песен могут содержать нецензурные выражения, брань.
© 2021 guitar-chords.ru