#табулатура

    
Madagascar

Intro (synth)
--------------------------------------------------------
-----------4-6--6--------------------------4-6---6-9------------
----6-6-6---------3-3---5-6------6-6-6--------------6---8-5---
-------------------4-4------------------------------------
--------------------------------------------------------
----6---4-------2-----------------6----4---------2------------
--------------------------------------------------------
------------4-6-6-7-7----------------------------------------
----6-6-6----------------5-6--6--5--5---5-3--5-3-3--5-6---
--------------------------------6---------------4-----------
--------------------------------------------------------
----6---4-----2--------------------------------------------
chords
----------------------------------------------------------
-14----13--11---------------------14----13---13--14-13--13---11--11-
-15----13--11---------------------13----13---13-----------11---11--11-
-15----13--11---------------------13----13---13-----------11---11--11-
-13----11---9-repeat x2 more---11----11---11------------9----9---9-
-----------------------------------------------------------
vamps with chords
--18------------------------------------16--14--
---------------------------------------------
--15---(repeat x12)-------------------13--11--
-----------------------------------
-----------------------------------
-----------------------------------
Bridge
--------------------------------------------------------------------18--
----13-(14)--13---11---------13-(14)--13---11------16-(18)--
------------------------------------------------------------------15----
--------------------------------------------------------
------------------------------------------------------------------------------------
--------------------------------------------------
---13-(14)--13------------13-(14)--13---11--------11---(18)
-----------------13-------------------------------------
--------------------------------------------------------
--------------------------------------------------------
--------------------------------------------------------
--------------------------------h-----------------------
----16-(18)(16)--16--------16--18-\-(14)------14----
--------------------------------------------------------
--------------------------------------------------------
--------------------------------------------------------
--------------------------------------------------------
-----h--po---------------------------------------------
--13-14-13---11--------------------------------------
--------------------------------------------------------
--------------------------------------------------------
--------------------------------------------------------
--------------------------------------------------------
----------------------11----------------------11------------
----------------------13-(14)-13--11--------13-(14)-13--11---
-------h--po-----------------------------------------------
--8-10-11-10--8-------------------------------------------------
--------------------------------------------------------
--------------------------------------------------------
-----11--------------------11-------------------------
-----13-(14)-(13)---------13-(14)-13--11------------
-------------------13----------------------------------
--------------------------------------------------------
--------------------------------------------------------
--------------------------------------------------------
ive searched and found ......  my own denial is so hard to break
-------------------------4---------------------
-------------------------4---------------------
--6---5---3------5----------5---5-6-5-3----3------------
--8---6---4------6---6--------6---------------------
--8---6---4------6--------------------------------
--6---4---2------4--------------------------------
solo
--------------------------------------------------------
--------------------------------------------------------
--------------------------------------------------------
-----------------------~-------
--13----------------------------------------------------
---------------------11--11--11-11-11-11-11--13---------6----
--------------------------------------------------------
--------------------------------------------------------
--------------------------------------------------------
-----------------------------------------------------/-15--13-------
-------11---------------------------------------13-------------13--16-
--11------13-----13-11-13---13-11-13-------------------------------
--------------------------------------------------------
--------------------------------------------------------
--------------------------------------------------------
------h-------------------h-------------------------------
---13-16--16-11------11--13--13-----------------------
--------------------13------------------------------------
--------------------------------------------------------
--------------------------------------------------------
--------------------------------------------------------
--------------------------------------------------------
-9-9-9-9-6-6-6-6-9-9-6-6-8-8---------------------------
--------------------------------------6---------------------
--------------------------------------------------------
--------------------------------------------------------
-----13-15--13------------------------------------------------
--15------------15---15-(16)-(15)-15----15--13-13--15-15-----
-------------------------------------------------------------------13
--------------------------------------------------------
-----------------------------------------------------------------
------------------------------------------------------
----------------------13-13-15-15--13-13-15-15-----------
-15-15-13-13-15-15-------------------------------13-13-15-15------
----------------------------------------------------------------------13-13-
-------------------------------------------------
-------------------------------------------------------
-------------------------------------------------------
----------------------13-13-15-15-------------------
------15-15-13-13-----------------------------------
-------------------------------------------------------
-------------------------------------------------------
--------------------------------------------------------
-13-14--16---16-(17)-16-(17)-16-(17)-16-(17)(16)-16-14-13-
------------------------------------------------------
--------------------------------------------------------
--------------------------------------------------------
--------------------------------------------------------
-------------------------------------------------
--14---------h---------------------------------
------13--13-15--13--------------------------
-----------------------15\(13)-11------------
------------------------------------13--------
-----------------------------------------------
-----------------------------------------------------
------------------------------------------14-16-18
--------------------------------13-15---------------
-----------11---11-13--/15-------------------------
--------------13------------------------------------
-----------------------------------------------------
-----------------------------------------
---16-(18)-16-(18)(16)--16-(18)----
-----------------------------------------------
-------------------------------------------------------
--------------------------------------------------------
--------------------------------------------------------
--------------------po----------po--------h----
---16(18)(16)-16-(14)--14-(13)----13(14)
--------------------------------------------------13
--------------------------------------------------------
--------------------------------------------------------
--------------------------------------------------------
---------------------h-------h---------h--------h------------------h
----------------------------------------------------------------------
-----13--------13-(15)----------13-(15)----------------13--13-(15)
--15---------------------13-(15)-----------13-(15)--15--------------
-----------------------------------------------------
-----------------------------------------------------
------------------------------b---------b--sl
------------------14-16--16-(18)---16-(18)\---
-----------------------------------
------------------------------
-----------------------------------------------------
-----------------------------------------------------
--18-----18-----18----18-----18-----18---18------------b------
------18-----19----18-----19-----18----19---18-16-16(18)(16)--11-
-------------------------------------------------------
-------------------------------------------------------
-------------------------------------------------------
-------------------------------------------------------
Outro solo w/wah
-----b---------------b--------------b-------------b---
16-(18)-(16)-14-(16)-(14)-13-(14)-(13)-13-(14)-
--------------------------------------------------------
--------------------------------------------------------
--------------------------------------------------------
--------------------------------------------------------
------------------------------------------
-13--13(14)(13)---11------------------
------------------------------------------
------------------------------------------
------------------------------------------
------------------------------------------
Synth outro
---------------------------------------------------------
---------------------------------------------------------
--3--5-6--8-10--10-3--3----5-6----10-10---8-6-5--
----------------------4--4------------------------------
---------------------------------------------------------
---------------------------------------------------------
---------------------------------------------------------
------------------------po------------------------------
---3-3------3----------3-------------------------------
-------------4--(3)----3--------------------------------
---------------------------------------------------------
---------------------------------------------------------

© Авторские права на тексты, песни, видео и другую представленную информацию принадлежат правообладателям. Аккорды, табы, gtp и тексты песен взяты из открытых источников.
Возрастная категория сайта: 18+
Тексты некоторых песен могут содержать нецензурные выражения, брань.
© 2021 guitar-chords.ru