#табулатура

    "Appetite For Destruction"
My Michelle

intro:
e||---------------------------------------------------------------------||
B||--------2---------------0--------0-----------------------------------||
G||------2---2-----------2--------2-----------2---------------2---------||
D||----2-------2---2---2--------4-----------4---4-----------4---4-------||
A||--4-----------4---3--------2-----------4-------4---4---4-------4---4-||
E||-------------------------------------2-----------2---2-----------2---||
riff A +
intro
e||--9--8--7---5-------9--8--7---5-5-5-5-5-5-5-----|
B||------------------------------------------------|
G||--9--8--7---6-------9--8--7---6-6-6-6-6-6-6-----|
D||------------------------------------------------|
A||------------------------------------------------|
E||------------------------------------------------|

e|---9-9-9---8-8-8---0-7-7-7---0-5----||
B|------------------------------------||
G|---9-9-9---8-8-8---0-7-7-7---0-6----||
D|------------------------------------||
A|------------------------------------||
E|------------------------------------||
riff B play 2 times
e||--------------------------------------||
B||--------------------------------------||
G||--------------------------------------||
D||--------------------------------------||
A||---4--x-4-3--2-0-------------0--------||
E||------------------2-2--2-0-2---0-2----||
riff C
e||-------------------------------------||
B||---6--x-6-5--4-----------------------||
G||---6--x-6-5--4-----------------------||
D||---6--x-6-5--4--------------2----4---||
A||---4--x-4-3--2--4-4--4-2-4--0----4---||
E||----------------2-2--2-0-2-----0-2---||
riff D
e||-----------------------||
B||---6--x-6-5--4---------||
G||---6--x-6-5--4---------||
D||---6--x-6-5--4-----4---||
A||---4--x-4-3--2--0--4---||
E||-------------------2---||
verse 1 your daddy works in porno...
e||-------------------------------------||
B||---6--x-6-5--4-----------------------||
G||---6--x-6-5--4-----------------------||
D||---6--x-6-5--4--------------2----4---||
A||---4--x-4-3--2--4-4--4-2-4--0----4---||
E||----------------2-2--2-0-2-----0-2---||
riff E
she used to love her heroin...
e||----------------------------------------------||
B||---6--x-6-5--4--x-x---------------------------||
G||---6--x-6-5--4--x-x---------------------------||
D||---6--x-6-5--4--x-x---------------------------||
A||---4--x-4-3--2--x-x---4-4--4h5p4--4/(12)(4)--||
E||----------------------------------------------||
riff C
so you stay out late at night
and you do your coke for free
riff D
drivin` your friends crazy with your life insanity.
chorus D5 E5 B5 C#5 E5 A5 D5 C#5 B5 A5 G#5 A5 
well, well, well, you just can
tell, well, well, well my michelle
riff C riif D verse 2 riff C riff E riff C riff D
D5 E5 B5 C#5 E5 A5 D5 C#5 B5 A5 G#5 A5 
well, well, well, you just can
tell, well, well, well my michelle
then come fill 2
e||-------5------5--------------------------||
B||-----5---5-8b(10)-8-5--------------------||
G||--7b(9)----------------7b(9)rp5--7-5-----||
D||-------------------------------------7---||
A||-----------------------------------------||
E||-----------------------------------------||
D5 E5 B5 C#5 E5 F5 D5 C#5 B5 A5 G#5 A5 
well, well, well, you never can
tell, well, well, well my michelle
then come
e||---------------------------||
B||---------------------------||
G||---------------------------||
D||---6--4--2--0--------------||
A||---------------4--2--0-----||
E||---------------------------||
E5 D5 A5 B5 G5 E5 
ev`ryone needs love, you know that it`s true
D5 A5 B5 
someday you`ll find someone that`ll fall in love with you
E5 D5 A5 B5 G5 E5 
but,oh the time it takes, when you`re all alone
D5 A5 B5 
someday you`ll find someone that you can call your own
but till then ya better...
solo
e||---------------------------------------7---7----------------|
B||--16b(17)-16b(17)-16-16--------------7---7---10b(12)//----|
G||--16b(17)-16b(17)-16-16p14----14----------------------------|
D||---------------------------16----16-------------------------|
A||------------------------------------------------------------|
E||------------------------------------------------------------|

e|--7-------------7----------7-----------0------|
B|----10p9----------10---------10----------0----|
G|---------9b(10)------9//------9//---------|
D|---------9b(10)-------------------------------|
A|----------------------------------------------|
E|----------------------------------------------|

e|---------------------------------------------|
B|---------------------------------------------|
G|---------------------------------------------|
D|---------------------------------------------|
A|---------------------------------------------|
E|--10b(2)rb(2)rb(2)rb(2)r//--7b(9)--7b(9)---|

e|----------------------------------------------------||
B|----------------------------------------------------||
G|----------------------------------------------------||
D|---------------------------------0---5b(7)r--5--5---||
A|--7-5------------------2---4b(5)--------------------||
E|------7--5-4-3---3b(5)---5--------------------------||

verse 3
riff C riff E riff C riff D
D5 E5 B5 C#5 E5 A5 D5 C#5 B5 A5 G#5 A5 fill 2 
well, well, well, you just can tell,
well, well, well, my michelle
D5 E5 B5 C#5 E5 F5 D5 C#5 B5 A5 G#5 A5 
well, well, well, you never can
tell, well, well, well, my michelle
ending part play 4 times
my, my, my, michelle
e||----------------------------------||
B||----------------------------------||
G||----------------------------------||
D||----------------------------------||
A||-----------------------------3----||
E||--4h5-5-5--4h5-5-5--4h5-5-5-------||

e||------------------------------------------------------------||
B||------------------------------------------------------------||
G||---4p2p0-------4p2p0--------4p2p0-------4b(6)rp2---------2--||
D||---------4p2p0--------4p2p0-------4p2p0-----------4p2p0--0--||
A||------------------------------------------------------------||
E||------------------

© Авторские права на тексты, песни, видео и другую представленную информацию принадлежат правообладателям. Аккорды, табы, gtp и тексты песен взяты из открытых источников.
Возрастная категория сайта: 18+
Тексты некоторых песен могут содержать нецензурные выражения, брань.
© 2021 guitar-chords.ru