#табулатура

    "Appetite for Destruction"
Out Ta Get Me

* Half step tuning (Low to high: Eb, Ab, Db, Gb, Bb, Eb)

Intro: Guitar 1                     Guitar 2
    G5             C5  Bb5 
e----------------------------|-\    e-----------------  This is an over-dub
B--------------------------*-|-|    B-----------------  after the intro riff
G------------------5---3-----|-|    G-----------------  has been played once.
D---5----5---------5---3-----|-|    D--10//3----------  Then it starts
A---5----5--x--5---3---1---*-|-|    A--10//3----------  playing the intro riff.
E---3\6--3--x--3-------------|-/    E--10//3----------
This little riff the is the intro riff, and is also used thought the chorus.
If you think it sounds better, you can slide the whole power chord, intead of
just sliding the G  root to an A# , I don't know, play around with it and get the
feel.

Intro Solo: Slash!
e-13^-14^/\/\/\/\-14-16^-16^16^16^16^------------------------------------12\\-\
B------------------------------------13-15/\/\/\/\-----------------------12\\-|
G-------------------------------------------------18p16h18p16h18p16h18-15-----|
D-----------------------------------------------------------------------------|
A-----------------------------------------------------------------------------|
E-----------------------------------------------------------------------------/

Verse:
   G5 
e-------------------------------------------------\
B-------------------------------------------------|
G-------------------------------------------------|
D--5----------------------------------5--------5--|
A--5----------------------------------5--------5--|
E--3-3-3-3-3-3-3-3-3-3-3-3-3-3-3-3-3--3-\-6-/--3--/
   P.M. - - - - - - - - - - - - - -|
   Been hidin' out and layin' low...
Pre-Chorus:
           D       C       G       F                  C5                  Eb5 
e--------------------------------------------------|-------------------------\
B----------7-------5-------3-----------------------|-------------------------|
G----------7-------5-------4-------5--4--h5p4------|----------5-----------8--|
D----------------------------------7----------7p5--|----------5-----------8--|
A--5--5-5-----5-5-----5-5-----5-5------------------|--3--3-3--3---3--3-3--6--|
E--------------------------------------------------|-------------------------/

e--------------------------------------|\
B--------------------------------------||
G----------5-----------8-----------5--o||
D----------5-----------8-----------5--o||
A--3--3-3--3---3--3-3--6---3--3-3--3---||
E--------------------------------------|/

Chorus:
|---------------------------------|\
|---------------------------------||
|-----------------------5---3----o||
|---5----5--------------5---3----o||
|---5----5-------x--5---3---1-----||
|---3\6--3-------x--3-------------|/
 They're out to get me!

Don't worry, I will also add the solo.
Enjoy this for now!

© Авторские права на тексты, песни, видео и другую представленную информацию принадлежат правообладателям. Аккорды, табы, gtp и тексты песен взяты из открытых источников.
Возрастная категория сайта: 18+
Тексты некоторых песен могут содержать нецензурные выражения, брань.
© 2022 guitar-chords.ru