Guitar Solo:
/ = slide
W = bend note up whole step
H = bend note up half step
-----------------8--7-|-8--------8/--10--8-------|------------------8--7--|
----------------------|-------------------10/-12-|-----------8------------|
----------------------|--------------------------|------------------------|
----------------------|--------------------------|------------------------|
----------------------|--------------------------|------------------------|
----------------------|--------------------------|------------------------|

-8-------8/-10--10/-12-|------------------8--7---|-8--------8/-10--8-------|
-----------------------|-------------------------|------------------10/-12-|
-----------------------|-------------------------|-------------------------|
-----------------------|-------------------------|-------------------------|
-----------------------|-------------------------|-------------------------|
-----------------------|-------------------------|-------------------------|

----------------10/-12-|-----10---10------12/-14-|----12----10------10-----|
---10---8--8--8--------|-------------------------|-------------------------|
-----------------------|-------------------------|-------------------------|
-----------------------|-------------------------|-------------------------|
-----------------------|-------------------------|-------------------------|
-----------------------|-------------------------|-------------------------|

------------------------|------------------------|-------------------------|
-------5--8-------------|------------------------|---------5--8------------|
---7-----------7---5--7-|-----4---7--------------|---7W---------7----5--7/-|
------------------------|--7W-------7H-----5-----|-------------------------|
------------------------|------------------------|-------------------------|
------------------------|------------------------|-------------------------|

----------------------------|-------------------------|-----------------------|
-------8--10W---8-----8--10-|--10W--10--8-10----8--10-|-8--10-----8--10-8-10-12-
----9-------------9---------|----------------9--------|------------------------
----------------------------|-------------------------|------------------------
----------------------------|-------------------------|------------------------
----------------------------|-------------------------|------------------------

----------------------------|
------10------10------------|
----------------------------|
----------------------------|
----------------------------|
----------------------------|


© Авторские права на тексты, песни, видео и другую представленную информацию принадлежат правообладателям. Аккорды, табы, gtp и тексты песен взяты из открытых источников.
Возрастная категория сайта: 18+
Тексты некоторых песен могут содержать нецензурные выражения, брань.
© 2021 guitar-chords.ru