Rhiad And The Bedouins

1/2 step down, plus drop D

Intro:        
-----------------------------------
------------sl-------sl----------------
---11-----9/11----9/11-----------
----x------x-------x------------------
----9-----7/-9-----7/9------------
----------------------------------- } repeat

-----------------------------------
-----------------------------------
---11--11--x--x-------11---11---
-----------------------------------
----9---9---x---x------9----9----
----------------------------------- etc...

Main riff:    -----------------------------------
-----------------------------------
-----------------------------------
--------------------2-----------------
-4--4--4--2---4--0--4--------------------
-4--4--4--2---4-----4-----
                PM
-----------------------------------
-----------------------------------
-----------------------------------
---------------------2--------------------
-4---4--4---2-4-x-0----------------------
-4---4--4---2-4-x---------------
                  PM
-----------------------------------
-----------------------------------
-----------------------------------
-----------------------2--------------
-4----4--4---2---4---0----4-----------
-4----4--4---2---4--------4------------

-----------------------------------
-----------------------------------
-----------------------------------
--------------------------------po---
---7-7---------x----7-x-6---6-(4)----------
---7-7--10----------------------------
Oh, my salvation...
-----------------------------------
-----------------------------------
--------------------sl----------------bu--bd--sl---bu
-12---15(17)(15)~~\(9)-9-9-9-9-9-15(17)(15)/(17)(19)-
-----------------------------------
-----------------------------------
                                  ................PM the 9's
-----------------------------------
-----------------------------------
-----sl---------bu--bd--bu-----------
--17/(19)--15(17)(15)(17)-------
-----------------------------------
-----------------------------------

------------------------------------
------------------------------------
------bu--bd-------------------------h-----
--10(12)(10)--8---12------10---10(12)--8-----
------------------------------------
------------------------------------

-------------------------------------------
------------------------------------------------
--4--5-------------8----8----8----8\----------------
--4--5--2-4-----------------------------------
--2--3--2-4--------6----6----6----6\----------
--------2-4--------------------------------

-----------------------------------
--------1-----------------------------
--------0--2-------------2-2-2-2-2-2-2-2-2-2-2-2-2----
--0-----0--2---3/(5)----2-2-2-2-2-2-2-2-2-2-2-2-2---------
--5-----3--0-------------0-0-0-0-0-0-0-0-0-0-0-0-0---
--------3--0-------------------------

start of solo (Vegas version)
----------15-------17---18-----17(19)-
-----------------------------------------------
---11----(12)----(14)--(15)---(14)-----------
-----------------------------------------------
-----------------------------------------------
-----------------------------------------------
---15(16)-(16)--(16)(15)(16)---17(19)~~~---
--------------------------------
--------------------------------
--------------------------------
--------------------------------
--------------------------------
-----------------------------------------
------------------------------------------
----(rest of solo) aaaaaaaaaaaaaarrrrrgh! :/ --
-----------------------------------------
-----------------------------------------
-----------------------------------------

Outro - tremlo pick
-----------------------------------
-----------------------------------
-----11--9----------------------------
-------------11----------------------
-----------------------------------
-----------------------------------

© Авторские права на тексты, песни, видео и другую представленную информацию принадлежат правообладателям. Аккорды, табы, gtp и тексты песен взяты из открытых источников.
Возрастная категория сайта: 18+
Тексты некоторых песен могут содержать нецензурные выражения, брань.
© 2021 guitar-chords.ru