With lots a distortion....and a lot of feelin.....

Intro:        
e-------------------------------------------------------------------
b-------------------------------------------------------------------
g---19--21b--19--21-19h21p19p17\15----19--21b--19--21-19h21p19p17\15
d-------------------------------------------------------------------
a17--------------------------------17-------------------------------
e-------------------------------------------------------------------

e-------------------------------------------------------------------
b-19/\/\/\-17-19-17h19p17\15----------------------------------------
g----------------------------21/\/\-19-21b-19h21p19p17\15-----------
d--------------------------------------------------------15--h17p15-
a-------------------------------------------------------------------
e-------------------------------------------------------------------

e---------------------------------------
b---------------------------------------
g---------------------------------------
d----15--17/19\17--15-----------------
a------------------------19--17---15\--
e---------------------------------------

A         D 
I dont have pleasent scenes and
A         D 
I dont have hopes and dreams
A         D           B                  E 
I dont have anything since I dont have you and
A         D 
I dont have fun desires and
A         D 
I dont have happy hours
A         D           B                  E 
I dont have anything since I dont have you
                         B           A 
Happiness and I guess I never will again
B 
When you walked out on me
A 
You brought on misery and
B                      E 
Its been here since then
Yeah were fucked

Solo:        
e-------------------------------------------------------------------
b-------------------------------------------------------------------
g--19--21b--19-21--19h21p19p17\15----19-21b--19--21--19h21p19p17\15-
d-------------------------------------------------------------------
a17--------------------------------17-------------------------------
e-------------------------------------------------------------------

e-------------------------------------------------------------------
b-19/\/\/\-17-19-17h19p17\15----------------------------------------
g---------------------------21/\/\-19-21b-19h21p19p17\15------------
d-------------------------------------------------------15--h17p15--
a-------------------------------------------------------------------
e-------------------------------------------------------------------

e------------------------------------------------------------
b------------------------------------------------------------
g------------------------------------------------------------
d--15--17/19----21-21-21----19-19-19--17b-15-----------------
a--------------------------------------------------19--17----
e------------------------------------------------------------

A        D 
I dont have love to share and
A        D 
I dont have one who cares
A        D          B                  E    E E E E E E E 
Idont have anything since I dont have you
 You           You       You   ahh   ahh
e----------------------------------------------
b----------------------------------------------
g--------2------------------------------------- \ Repeat
d-2---2----4-4--2----------2---2/4--2-2/4------ /  5x
a-0-------------0----------0-------------------
e----------------------------------------------
  You  You    ahh  yeeeeeeeeeeeeeeah
e-------------------------------
b-------------------------------
g-------------------------------
d--2----2-----------------------
a--0----0-----------------------
e-------------------------------

The chords are:
    e  a  d  g  b  e
A   x  0  2  2  x  x
B   x  2  4  4  4  x
D   x  5  7  7  7  x
E   x  7  9  9  9  x

I hope this helped out.........if not, well...I tried...z ya

© Авторские права на тексты, песни, видео и другую представленную информацию принадлежат правообладателям. Аккорды, табы, gtp и тексты песен взяты из открытых источников.
Возрастная категория сайта: 18+
Тексты некоторых песен могут содержать нецензурные выражения, брань.
© 2021 guitar-chords.ru