Tune down half step

Intro:        
     D                 C 
e:|--------------15----14-----|--------------15----14-----|
B:|-----15--------------------|-----15--------------------|
G:|:-------14-12----14----14-:|:-------14-12----14----14-:|
D:|--12-----------------------|--14-----------------------|
A:|---------------------------|---------------------------|
E:|---------------------------|---------------------------|
     G                           D 
e:|--------------15----14-----|--------------15----14-----|
B:|-----15--------------------|-----15--------------------|
G:|:-12----14-12----14----14-:|:-------14-12----14----14-:|
D:|---------------------------|--12-----------------------|
A:|---------------------------|---------------------------|
E:|---------------------------|---------------------------|

Chorus:        
     A                           C 
e:|---------------------------|--------------12----10-----|
B:|--14-14-------15----14-----|--13-13--------------------|
G:|--------14-------14----14--|--------12-10----12----12--|
D:|-----------14--------------|---------------------------|
A:|---------------------------|---------------------------|
E:|---------------------------|---------------------------|
     D                           D 
e:|--------------15----14-----|--------------15---14-----|
B:|-----15--------------------|-----15-------------------|
G:|--------14-12----14----14--|--------14-12---14----14--|
D:|--12-----------------------|--12----------------------|
A:|---------------------------|--------------------------|
E:|---------------------------|--------------------------|
     A                           C 
e:|---------------------------|--------------12----10-----|
B:|--14-14-------15----14-----|--13-13--------------------|
G:|--------14-------14----14--|--------12-10----12----12--|
D:|-----------14--------------|---------------------------|
A:|---------------------------|---------------------------|
E:|---------------------------|---------------------------|
     D                           D 
e:|---------------------------|---------------------------|
B:|--------15-----------------|---------------------------|
G:|--12s14--------------------|---------------------------|
D:|---------------------------|---------------------------|
A:|---------------------------|---------------------------|
E:|---------------------------|---------------------------|
You should be able to work out the backing for the verses, and there's no
way I'm typing the solos in! As for effects... well, Slash has distortion
(Marshall Jubilee stack), delay (added at the console) and Wah for the final
solo (Crybaby). I think Izzy just has distortion. Oh yeah, they probably
have a bit of chorus for the backing behind the verses.


© Авторские права на тексты, песни, видео и другую представленную информацию принадлежат правообладателям. Аккорды, табы, gtp и тексты песен взяты из открытых источников.
Возрастная категория сайта: 18+
Тексты некоторых песен могут содержать нецензурные выражения, брань.
© 2021 guitar-chords.ru