#табулатура

    
The Blues

Piano intro
H (rapid)
------12----------------12--14-15---------14-15-17----17-19----
------13-------------13----------------14----------
-12---------------12-----------------------------
-------------(10)----------------------------
----------(10)------------------
-----------------------------------------
-----15--14--12---14-15-14-12--14--------------------14------12---
-------------------------------------------15---------------    15------13-----
-----------------------------------------------------14-----14--    -12---------
---------------------------------------------
-----------------------------------------------
------------------------------------------------
----------12--14-15-----12----14----15---17-----------------
-------13---------------- 13---------------------
--12--------------------- 12-----------------------
---------------------------------------------
-----------------------------------------------
------------------------------------------------
guitar
----------------------------------------------
----------------(13)-12-----------8-----------------
-------------------------10--12---10-(12)---------------
--5-------------------------------------------
--5---------------------------------------------
--3----------------------------------------------
----------------------------------------------
-----------(13)-12----------------------------
-------------------------10--12--/8---7/8\\\\\\\\\\\\\\\\7--
----------------------------------------------
---------------------------------------------
-----------------------------------------------
------------------------------------------------
piano chorus
---15-15------15-----15----15---------------------------
-------------------------------------13--13----13-----13--13---
-------12-------12--------12----12---------12-----12--- 12---12
---------------------------------------------
-----------------------------------------------
------------------------------------------------
----------------------------------------------
---12--12-----12------12--12-------10--10----10-----12---------
-----------12-----12------12----12----------12----12----
---------------------------------------------
-----------------------------------------------
------------------------------------------------
so now I wander through my days...
-----------------------------------------------
----------------------------------------------
--------------------------------------------------------10
-5------7-------5--------7------5----7----10----10------10--------
-5------7-------5--------7------5----7----10----10-------8--------
-3------5-------3--------5------3----5----8------8----------
-----------------------------------------------
----(14)-12-------------8------------(14)-12--------------
--------------10--12----10-(12)--------------10--12----
----------------------------------------------
----------------------------------------------
-----------------------------------------------
-----------------------------------------------
----------------------------------------------
------------10--12--------------------------------
----------------------------------------------
--10--9/10------------------------------------------
-----------------------------------------------
------------------------------------
------------------------------------
--------------------------------------
---7--9---10--------------------------------
---7--9---10---------------------------------
---5--7---8---------------------------------
I don\\\\\\\\\\\\\\\'t know just what I should do
-----------3---------3-----------2/3----3-2--2--3--------------
-------------3----------3----------------------
----------------------------------------------
--------5--------4--------------------------------
----3----------2------------2----------------------
---------------------------0----------------------
solo -----------------------------------------------
15-(17)--15---15~~~--13---13-12--13-12/13-12-----------------
--------------------------------------------------------14-12-14/16-(16)(17)
--------------------------------------------------------------------------------
----------------------------------------------
-----------------------------------------------
-----------------------------------------------------------------------------
------------------------------------------------------------------------------
---14-(16)(14)(16)--12---14---14--(12)-(10)--10-(9)/(10)-9/10
----------------------------------------------------------------------------
------------------------------------------------------------------------
------------------------------------------------------------------------
-----------------------------------------------
---------------------------------------------------------15-17-17-17(18 )~~
---12/(14)~~~-12--12------14---14/(16)--/14-16--------------------
---------------------------12---------------------
----------------------------------------------
-----------------------------------------------
-----------------------------------------------
--(18)17--15~~~---/15--13-12---13-
--------------------------------------------
----------------------------------------------
---------------------------------------------
-----------------------------------------------
-----------------------------------------------
--12---------------------------------
--------12----------14/(16)(17)-14(16)(14)-12-14
-------------12-----------------------------------------14
----------------------------------------------
-----------------------------------------------
-----------------------------------------------
-16--16-15-13---------------18----18--16-15-----------------/20
------------------16-15-13---------------------------18-16-15---------
----------------------------------------------
----------------------------------------------
-----------------------------------------------
------------17-18---17-18-17-15---------17-18-20---22--22~~-22(24)
---/18--20-------------------------18--20--------------
----------------------------------------------
----------------------------------------------
----------------------------------------------
-----------------------------------------------
--22--20--18----20/(22)-18-------22-18---17--15/(17)--------------
---------------------------------/22-----------------------------\\\\\\\
\\\\\\\\10----
------------------------------------------------------------------------12
----------------------------------------------
----------------------------------------------
-----------------------------------------------
-----------------------------------------------------------------------------
--------------------16-15-13---------------------
------10-8-7------------------16-15-13--15-13-12-------------
---------------------------------------------------------15--13--12-------
-----------------------------------------------------------------------
-------------------------------------------------------------------------------
------------------------------/19-----------------------
----12/13-12---/12--------------20------------------------------
-----------------------12------------------------------
-------------------------------------------------h--
-------------------------------------------16--17-------
-------------------------------------------15--17------
-----------------------------------------------------

© Авторские права на тексты, песни, видео и другую представленную информацию принадлежат правообладателям. Аккорды, табы, gtp и тексты песен взяты из открытых источников.
Возрастная категория сайта: 18+
Тексты некоторых песен могут содержать нецензурные выражения, брань.
© 2021 guitar-chords.ru