You Could Be Mine

------...                                |                               |
------...                                |                               |
------...                                |                               |
------...                                |                               |
------...                                |                               |
--12-12-12-12-12-12-12-12-9-9-9-9-9-9-7-7|7-7-7-7-7-7-7-7-5-5-4-4-3-3-3-3|

----14---    Then do some funky feedback with -------------
----14---                                     -------------
----14---                                     ------2------
---------                                     ------2------
---------                                     -------------
---------                                     -------------

1/4B     p                                 1/2    p
-------------------------------------------------------------------3-----------------
4-----4-----2------------2---------------2-----2-----0-------------3-----------------
4-----4-----2------------2---------------2-----2-----0-------------------------------
-------------------4-----2-----------------------------------2-----------------------
-------------------------------------------------------------------------------------
-------------------------------------------------------------------------------------
|------Lick 1----------------|          |------Lick 2----------------|
from now on play lick 1 with 1/2 bend.  Note:when playing the bends make sure that you
bend both notes.
repeat lick 1 twice    repeat lick 2 twice
repeat lick 1 twice    repeat lick 2 once
-----3--
-----3--
--2-----
--------   (then repeat this 5 times)
--------
--------
Now we have about 4 measures of powerchords ect.
Listen to the song to see how the timing goes(That goes for this whole work)
-----------
-----------
-----------7------9
-----9-----9------9
-----7-----7------7
Then the main riff that is used through out the chorus and verses is this:
--------------------------------------------------------------------------------------
--------------------------------------------------------------------------------------
---2--4--2--4--2------------------------------------2--4--2--4--2---------------------
---2--4--2--4--2--4--2---------------4--2--4--2--4--2--4--2--2--2--4--2---------------
------------------4--2--4------------4--2--4--2--4-----------------4--2--4------------
------------------------2------------------------------------------------2------------
A couple people wanted the solo so here it is:
Solo:You could be mine
another reason to cry---            1/2    1/2 hold---|
---------------------------------------------------------------------------
-------------------------------9-----9-----9--------9--(9)p7---9--7--------
-------------------------------9-----9-----9--------9--(9)p7---9--7--------
------------------------(9)-9-----9---------------------------------9--7--9~~
---------------------------------------------------------------------------
---------------------------------------------------------------------------
                       1/2
---------------------------------------------------------------------------
---7--9--9--9--7--9-----9--------------------7-----------------------------
---7--9--9--9--7--9--7--9----------7h9--9----7--9p7s6---7--6--7--6h7p6----6
---------------------7--------------------7-----------------------------9--
---------------------------------------------------------------------------
---------------------------------------------------------------------------
                            1/2 1/2           1/2     1/2 2(1/2)       F
---------------------------------------------------------------------------
---------------------------------------------------------------------------
--6----------------------------------------------------------------------10
9----9--9--7-----9---7------------------------7-----------------------9----
--------------9----9---9--8--8---7----(7)p5---7--5-------------------------
--------------------------------------------7-------7--7--10--7---(7)s-----
                1/2
10------7-------10---x--------10--9h10p9p7-----9-----7h9p7------10-------10
10~~--10p7-------x--10p7---------------10----10---------10-----8s12----
---------------------------------------------------------------------------
---------------------------------------------------------------------------
---------------------------------------------------------------------------
---------------------------------------------------------------------------
        F(ull)
--------12-----10--------14-------------17~~~-14--17------------------14---
12--10------------12--10-----17--14------------------14--17---17~~---17
-------------------------------------16------------------------------------
---------------------------------------------------------------------------
---------------------------------------------------------------------------
---------------------------------------------------------------------------
                                                          F        F     F
----17--14-----------------14-------17-----17---14--17----17------17----17-
-14--------17p14--17~-----17p14----14--------------14------------------
---------------------------------------------------------------------------
---------------------------------------------------------------------------
---------------------------------------------------------------------------
---------------------------------------------------------------------------
1/2                      While you're breakin down my       back an' I been
---------------------------------------------------------------------------
17------16-----------------------------------------------------------------
------------16--14------------------------14s16-------------16~
--------------------16p15p14--122--14--12----------------------------------
---------------------------------------------------------------------------
---------------------------------------------------------------------------
 matter how we maek it cause it always
---------------------------------------------------------------------------
--7------------------------------------------------------------------------
--7------------------------------------------------------------------------
--7-----------------------------7(harmonic)--------------------------------
--5------------------------------------------------------------------------
---------------------------------------------------------------------------
I     said    you                              could       be
---------------------------------------------------------------------------
-------------------------10-------------------------10---------------------
9s11--11s14---11-----11------11----------------11-------11-----------------
---------------------------------9(full)p7---------------------------------
7s9---9s12----------------------------------9---------------------9--9-----
---------------------------------------------------------------------------
you                               should  be         you
---------------------------------------------------------------------------
--------------10------------------------------------------10---------------
--------11---------11---11----------------------------11------11------11---
-----------------------------9---------------------------------------------
9--9----------------------------9----------------------------------9------9
---------------------------------------------------------------------------
could              be                   mine
---------------------------------------------------------------------------
-------14--16--14--16--14--------------------------------------------------
--11---14--16--14--16--14--------------------------------------------------
-----------------------------16----14--16~~----------------------------
---------------------------------------------------------------------------
---------------------------------------------------------------------------

© Авторские права на тексты, песни, видео и другую представленную информацию принадлежат правообладателям. Аккорды, табы, gtp и тексты песен взяты из открытых источников.
Возрастная категория сайта: 18+
Тексты некоторых песен могут содержать нецензурные выражения, брань.
© 2021 guitar-chords.ru