#табулатура

    "Time Of The Oath"
Forever And One

Tune Down Your E sting One Half Step
-------------------------------------------------------------------------------
-------10-12b13-12h13p12p10-12-----8---88b10r8-6-8-5--------8b10r8---8---------
-9-9-9-------------------------9--x--9----------------7-5----------7---7/9---9-
---------------------------------x------------------------7--------------------
-------------------------------------------------------------------------------
-------------------------------------------------------------------------------
Solo
----10-------------------------------------------------------------------------
-------13--13b15r13--------------------------10-10-12-13-12--10h12p10----------
-12----------------12b14r12-------------------------------------------12-10----
----------------------------1210----------------------------------------------
----------------------------------12-10--12------------------------------------
-------------------------------------------------------------------------------

-15b17r15-13-12h13p12----------------15----------------15----------------------
----------------------15--13-15-15b17--117r15p13-15b17----17r15p13-15b17-------
-------------------------------------------------------------------------------
-------------------------------------------------------------------------------
-------------------------------------------------------------------------------
-------------------------------------------------------------------------------

© Авторские права на тексты, песни, видео и другую представленную информацию принадлежат правообладателям. Аккорды, табы, gtp и тексты песен взяты из открытых источников.
Возрастная категория сайта: 18+
Тексты некоторых песен могут содержать нецензурные выражения, брань.
© 2021 guitar-chords.ru