I Need Somebody

As played on Raw Power

Intro:    Played 8 times
E--------------------------------------------------------
B-------------------------------------------------------
G------------------------------------------------------
D-------------------------------------------------------
A--5----5----12--11--10------8--8----5-------------------
E--3----3----10--9---8-------6--6----3---------------------
 Or you could try this which is easier.
E---------------------------------------------------------
B-------------------------------------------------------
G------------------------------------------------------
D-------------------------------------------------------
A------------5--4--3--------------------------------------
E--3---3---------------6--6----3---------------------------
Then theres the verse riff
  G                                                 D# 
E----------------------------------------------------
B----------------------------------------------------
G----------------------------------------8------8-----
D-----------------------------5---3--------8------8---
A--5--5-----3---5---------------------6-------6-------
E--3--3--3-----------6---3----------------------------
   D 
E-------------------------------------------------------------
B-------------------------------------------------------
G----7-------7-------------------------------------------
D------7-------7------------------------------------------
A--5------5--------------------------------------------------
E---------------------------------------------------------
For the chorus riff Im not going to type out every single
note just the chords. You will have to figure out by yourself
the timing, how many times you strike the chords and so on
  I need some-bo-dy   Baby
   G              F         C 
E-3-----------1-------3-------------------------------------------
B-3-----------1-------5----------------------------------------
G-4-----------2-------5------------5---5---5--5--3-------3----
D-5-----------3-------5-----------------------------3-5-----
A-5-----------3-------3----------------------------------------
E-3-----------1----------------------------------------------
For the "Just like you" -part  and the outro use the intro riff.

© Авторские права на тексты, песни, видео и другую представленную информацию принадлежат правообладателям. Аккорды, табы, gtp и тексты песен взяты из открытых источников.
Возрастная категория сайта: 18+
Тексты некоторых песен могут содержать нецензурные выражения, брань.
© 2021 guitar-chords.ru